  0
SECTION
  2
HEADER
  9
$ACADVER
  1
AC1021
  9
$ACADMAINTVER
 70
    25
  9
$DWGCODEPAGE
  3
ANSI_1252
  9
$INSBASE
 10
0.0
 20
0.0
 30
0.0
  9
$EXTMIN
 10
1.000000000000000E+20
 20
1.000000000000000E+20
 30
1.000000000000000E+20
  9
$EXTMAX
 10
-1.000000000000000E+20
 20
-1.000000000000000E+20
 30
-1.000000000000000E+20
  9
$LIMMIN
 10
0.0
 20
0.0
  9
$LIMMAX
 10
12.0
 20
9.0
  9
$ORTHOMODE
 70
     0
  9
$REGENMODE
 70
     1
  9
$FILLMODE
 70
     1
  9
$QTEXTMODE
 70
     0
  9
$MIRRTEXT
 70
     1
  9
$LTSCALE
 40
1.0
  9
$ATTMODE
 70
     1
  9
$TEXTSIZE
 40
0.2
  9
$TRACEWID
 40
0.05
  9
$TEXTSTYLE
  7
Standard
  9
$CLAYER
  8
Layer 01
  9
$CELTYPE
  6
ByLayer
  9
$CECOLOR
 62
   256
  9
$CELTSCALE
 40
1.0
  9
$DISPSILH
 70
     0
  9
$DIMSCALE
 40
1.0
  9
$DIMASZ
 40
0.18
  9
$DIMEXO
 40
0.0625
  9
$DIMDLI
 40
0.38
  9
$DIMRND
 40
0.0
  9
$DIMDLE
 40
0.0
  9
$DIMEXE
 40
0.18
  9
$DIMTP
 40
0.0
  9
$DIMTM
 40
0.0
  9
$DIMTXT
 40
0.18
  9
$DIMCEN
 40
0.09
  9
$DIMTSZ
 40
0.0
  9
$DIMTOL
 70
     0
  9
$DIMLIM
 70
     0
  9
$DIMTIH
 70
     1
  9
$DIMTOH
 70
     1
  9
$DIMSE1
 70
     0
  9
$DIMSE2
 70
     0
  9
$DIMTAD
 70
     0
  9
$DIMZIN
 70
     0
  9
$DIMBLK
  1

  9
$DIMASO
 70
     1
  9
$DIMSHO
 70
     1
  9
$DIMPOST
  1

  9
$DIMAPOST
  1

  9
$DIMALT
 70
     0
  9
$DIMALTD
 70
     2
  9
$DIMALTF
 40
25.4
  9
$DIMLFAC
 40
1.0
  9
$DIMTOFL
 70
     0
  9
$DIMTVP
 40
0.0
  9
$DIMTIX
 70
     0
  9
$DIMSOXD
 70
     0
  9
$DIMSAH
 70
     0
  9
$DIMBLK1
  1

  9
$DIMBLK2
  1

  9
$DIMSTYLE
  2
STANDARD_ACAD
  9
$DIMCLRD
 70
     0
  9
$DIMCLRE
 70
     0
  9
$DIMCLRT
 70
     0
  9
$DIMTFAC
 40
1.0
  9
$DIMGAP
 40
0.09
  9
$DIMJUST
 70
     0
  9
$DIMSD1
 70
     0
  9
$DIMSD2
 70
     0
  9
$DIMTOLJ
 70
     1
  9
$DIMTZIN
 70
     0
  9
$DIMALTZ
 70
     0
  9
$DIMALTTZ
 70
     0
  9
$DIMUPT
 70
     0
  9
$DIMDEC
 70
     4
  9
$DIMTDEC
 70
     4
  9
$DIMALTU
 70
     2
  9
$DIMALTTD
 70
     2
  9
$DIMTXSTY
  7
Standard
  9
$DIMAUNIT
 70
     0
  9
$DIMADEC
 70
     0
  9
$DIMALTRND
 40
0.0
  9
$DIMAZIN
 70
     0
  9
$DIMDSEP
 70
    46
  9
$DIMATFIT
 70
     3
  9
$DIMFRAC
 70
     0
  9
$DIMLDRBLK
  1

  9
$DIMLUNIT
 70
     2
  9
$DIMLWD
 70
    -2
  9
$DIMLWE
 70
    -2
  9
$DIMTMOVE
 70
     2
  9
$DIMFXL
 40
1.0
  9
$DIMFXLON
 70
     0
  9
$DIMJOGANG
 40
0.7853981633974483
  9
$DIMTFILL
 70
     0
  9
$DIMTFILLCLR
 70
     0
  9
$DIMARCSYM
 70
     0
  9
$DIMLTYPE
  6

  9
$DIMLTEX1
  6

  9
$DIMLTEX2
  6

  9
$LUNITS
 70
     2
  9
$LUPREC
 70
     3
  9
$SKETCHINC
 40
0.1
  9
$FILLETRAD
 40
0.5
  9
$AUNITS
 70
     0
  9
$AUPREC
 70
     0
  9
$MENU
  1
.
  9
$ELEVATION
 40
0.0
  9
$PELEVATION
 40
0.0
  9
$THICKNESS
 40
0.0
  9
$LIMCHECK
 70
     0
  9
$CHAMFERA
 40
0.0
  9
$CHAMFERB
 40
0.0
  9
$CHAMFERC
 40
0.0
  9
$CHAMFERD
 40
0.0
  9
$SKPOLY
 70
     0
  9
$TDCREATE
 40
2458799.417543415
  9
$TDUCREATE
 40
2458799.375876748
  9
$TDUPDATE
 40
2458799.417594155
  9
$TDUUPDATE
 40
2458799.375927488
  9
$TDINDWG
 40
0.0000000116
  9
$TDUSRTIMER
 40
0.0000000116
  9
$USRTIMER
 70
     1
  9
$ANGBASE
 50
0.0
  9
$ANGDIR
 70
     0
  9
$PDMODE
 70
     0
  9
$PDSIZE
 40
0.0
  9
$PLINEWID
 40
0.0
  9
$SPLFRAME
 70
     0
  9
$SPLINETYPE
 70
     6
  9
$SPLINESEGS
 70
     8
  9
$HANDSEED
  5
3BF
  9
$SURFTAB1
 70
     6
  9
$SURFTAB2
 70
     6
  9
$SURFTYPE
 70
     6
  9
$SURFU
 70
     6
  9
$SURFV
 70
     6
  9
$UCSBASE
  2

  9
$UCSNAME
  2

  9
$UCSORG
 10
0.0
 20
0.0
 30
0.0
  9
$UCSXDIR
 10
1.0
 20
0.0
 30
0.0
  9
$UCSYDIR
 10
0.0
 20
1.0
 30
0.0
  9
$UCSORTHOREF
  2

  9
$UCSORTHOVIEW
 70
     0
  9
$UCSORGTOP
 10
0.0
 20
0.0
 30
0.0
  9
$UCSORGBOTTOM
 10
0.0
 20
0.0
 30
0.0
  9
$UCSORGLEFT
 10
0.0
 20
0.0
 30
0.0
  9
$UCSORGRIGHT
 10
0.0
 20
0.0
 30
0.0
  9
$UCSORGFRONT
 10
0.0
 20
0.0
 30
0.0
  9
$UCSORGBACK
 10
0.0
 20
0.0
 30
0.0
  9
$PUCSBASE
  2

  9
$PUCSNAME
  2

  9
$PUCSORG
 10
0.0
 20
0.0
 30
0.0
  9
$PUCSXDIR
 10
1.0
 20
0.0
 30
0.0
  9
$PUCSYDIR
 10
0.0
 20
1.0
 30
0.0
  9
$PUCSORTHOREF
  2

  9
$PUCSORTHOVIEW
 70
     0
  9
$PUCSORGTOP
 10
0.0
 20
0.0
 30
0.0
  9
$PUCSORGBOTTOM
 10
0.0
 20
0.0
 30
0.0
  9
$PUCSORGLEFT
 10
0.0
 20
0.0
 30
0.0
  9
$PUCSORGRIGHT
 10
0.0
 20
0.0
 30
0.0
  9
$PUCSORGFRONT
 10
0.0
 20
0.0
 30
0.0
  9
$PUCSORGBACK
 10
0.0
 20
0.0
 30
0.0
  9
$USERI1
 70
     0
  9
$USERI2
 70
     0
  9
$USERI3
 70
     0
  9
$USERI4
 70
     0
  9
$USERI5
 70
     0
  9
$USERR1
 40
0.0
  9
$USERR2
 40
0.0
  9
$USERR3
 40
0.0
  9
$USERR4
 40
0.0
  9
$USERR5
 40
0.0
  9
$WORLDVIEW
 70
     1
  9
$SHADEDGE
 70
     3
  9
$SHADEDIF
 70
    70
  9
$TILEMODE
 70
     1
  9
$MAXACTVP
 70
    64
  9
$PINSBASE
 10
0.0
 20
0.0
 30
0.0
  9
$PLIMCHECK
 70
     0
  9
$PEXTMIN
 10
1.000000000000000E+20
 20
1.000000000000000E+20
 30
1.000000000000000E+20
  9
$PEXTMAX
 10
-1.000000000000000E+20
 20
-1.000000000000000E+20
 30
-1.000000000000000E+20
  9
$PLIMMIN
 10
0.0
 20
0.0
  9
$PLIMMAX
 10
12.0
 20
9.0
  9
$UNITMODE
 70
     0
  9
$VISRETAIN
 70
     1
  9
$PLINEGEN
 70
     0
  9
$PSLTSCALE
 70
     1
  9
$TREEDEPTH
 70
  3020
  9
$CMLSTYLE
  2
Standard
  9
$CMLJUST
 70
     0
  9
$CMLSCALE
 40
1.0
  9
$PROXYGRAPHICS
 70
     1
  9
$MEASUREMENT
 70
     1
  9
$CELWEIGHT
370
    -1
  9
$ENDCAPS
280
     0
  9
$JOINSTYLE
280
     0
  9
$LWDISPLAY
290
     0
  9
$INSUNITS
 70
     4
  9
$HYPERLINKBASE
  1

  9
$STYLESHEET
  1

  9
$XEDIT
290
     1
  9
$CEPSNTYPE
380
     0
  9
$PSTYLEMODE
290
     1
  9
$FINGERPRINTGUID
  2
{75503ba2-6311-431a-b87b-cb5f2e87945b}
  9
$VERSIONGUID
  2
{FAEB1C32-E019-11D5-929B-00C0DF256EC4}
  9
$EXTNAMES
290
     1
  9
$PSVPSCALE
 40
0.0
  9
$OLESTARTUP
290
     0
  9
$SORTENTS
280
   127
  9
$INDEXCTL
280
     0
  9
$HIDETEXT
280
     1
  9
$XCLIPFRAME
290
     0
  9
$HALOGAP
280
     0
  9
$OBSCOLOR
 70
   257
  9
$OBSLTYPE
280
     0
  9
$INTERSECTIONDISPLAY
280
     0
  9
$INTERSECTIONCOLOR
 70
   257
  9
$DIMASSOC
280
     2
  9
$PROJECTNAME
  1

  9
$CAMERADISPLAY
290
     0
  9
$LENSLENGTH
 40
50.0
  9
$CAMERAHEIGHT
 40
0.0
  9
$STEPSPERSEC
 40
2.0
  9
$STEPSIZE
 40
6.0
  9
$3DDWFPREC
 40
2.0
  9
$PSOLWIDTH
 40
0.25
  9
$PSOLHEIGHT
 40
4.0
  9
$LOFTANG1
 40
1.570796326794897
  9
$LOFTANG2
 40
1.570796326794897
  9
$LOFTMAG1
 40
0.0
  9
$LOFTMAG2
 40
0.0
  9
$LOFTPARAM
 70
     7
  9
$LOFTNORMALS
280
     1
  9
$LATITUDE
 40
37.795
  9
$LONGITUDE
 40
-122.394
  9
$NORTHDIRECTION
 40
0.0
  9
$TIMEZONE
 70
 -8000
  9
$LIGHTGLYPHDISPLAY
280
     1
  9
$TILEMODELIGHTSYNCH
280
     1
  9
$CMATERIAL
347
44
  9
$SOLIDHIST
280
     0
  9
$SHOWHIST
280
     1
  9
$DWFFRAME
280
     2
  9
$DGNFRAME
280
     2
  9
$REALWORLDSCALE
290
     1
  9
$INTERFERECOLOR
 62
   256
  9
$CSHADOW
280
     0
  9
$SHADOWPLANELOCATION
 40
0.0
  0
ENDSEC
  0
SECTION
  2
CLASSES
  0
CLASS
  1
ACDBDICTIONARYWDFLT
  2
AcDbDictionaryWithDefault
  3
ObjectDBX Classes
 90
        0
 91
        3
280
     0
281
     0
  0
CLASS
  1
VISUALSTYLE
  2
AcDbVisualStyle
  3
ObjectDBX Classes
 90
     4095
 91
        3
280
     0
281
     0
  0
CLASS
  1
MATERIAL
  2
AcDbMaterial
  3
ObjectDBX Classes
 90
     1153
 91
        3
280
     0
281
     0
  0
CLASS
  1
SCALE
  2
AcDbScale
  3
ObjectDBX Classes
 90
     1153
 91
        3
280
     0
281
     0
  0
CLASS
  1
TABLESTYLE
  2
AcDbTableStyle
  3
ObjectDBX Classes
 90
     4095
 91
        3
280
     0
281
     0
  0
CLASS
  1
MLEADERSTYLE
  2
AcDbMLeaderStyle
  3
ACDB_MLEADERSTYLE_CLASS
 90
     4095
 91
        3
280
     0
281
     0
  0
CLASS
  1
SUN
  2
AcDbSun
  3
SCENEOE
 90
     1153
 91
        3
280
     0
281
     0
  0
CLASS
  1
DICTIONARYVAR
  2
AcDbDictionaryVar
  3
ObjectDBX Classes
 90
        0
 91
        3
280
     0
281
     0
  0
CLASS
  1
CELLSTYLEMAP
  2
AcDbCellStyleMap
  3
ObjectDBX Classes
 90
     1152
 91
        3
280
     0
281
     0
  0
ENDSEC
  0
SECTION
  2
TABLES
  0
TABLE
  2
VPORT
  5
8
330
0
100
AcDbSymbolTable
 70
     1
  0
VPORT
  5
29
330
8
100
AcDbSymbolTableRecord
100
AcDbViewportTableRecord
  2
*Active
 70
     0
 10
0.0
 20
0.0
 11
1.0
 21
1.0
 12
10.42990654205607
 22
4.5
 13
0.0
 23
0.0
 14
0.5
 24
0.5
 15
0.5
 25
0.5
 16
0.0
 26
0.0
 36
1.0
 17
0.0
 27
0.0
 37
0.0
 40
9.0
 41
1.972972972850329
 42
50.0
 43
0.0
 44
0.0
 50
0.0
 51
0.0
 71
     0
 72
   100
 73
     1
 74
     3
 75
     0
 76
     0
 77
     0
 78
     0
281
     0
 65
     1
110
0.0
120
0.0
130
0.0
111
1.0
121
0.0
131
0.0
112
0.0
122
1.0
132
0.0
 79
     0
146
0.0
348
2F
 60
     3
 61
     5
292
     1
282
     1
141
0.0
142
0.0
 63
   250
361
6D
  0
ENDTAB
  0
TABLE
  2
LTYPE
  5
5
330
0
100
AcDbSymbolTable
 70
     1
  0
LTYPE
  5
14
330
5
100
AcDbSymbolTableRecord
100
AcDbLinetypeTableRecord
  2
ByBlock
 70
     0
  3

 72
    65
 73
     0
 40
0.0
  0
LTYPE
  5
15
330
5
100
AcDbSymbolTableRecord
100
AcDbLinetypeTableRecord
  2
ByLayer
 70
     0
  3

 72
    65
 73
     0
 40
0.0
  0
LTYPE
  5
16
330
5
100
AcDbSymbolTableRecord
100
AcDbLinetypeTableRecord
  2
Continuous
 70
     0
  3
Solid line
 72
    65
 73
     0
 40
0.0
  0
ENDTAB
  0
TABLE
  2
LAYER
  5
2
330
0
100
AcDbSymbolTable
 70
     2
  0
LAYER
  5
10
330
2
100
AcDbSymbolTableRecord
100
AcDbLayerTableRecord
  2
0
 70
     0
 62
     7
  6
Continuous
370
    -3
390
F
347
46
  0
LAYER
  5
6E
330
2
100
AcDbSymbolTableRecord
100
AcDbLayerTableRecord
  2
Layer 01
 70
     0
 62
    18
420
        0
  6
Continuous
370
    -3
390
F
347
46
  0
ENDTAB
  0
TABLE
  2
STYLE
  5
3
330
0
100
AcDbSymbolTable
 70
     1
  0
STYLE
  5
11
330
3
100
AcDbSymbolTableRecord
100
AcDbTextStyleTableRecord
  2
Standard
 70
     0
 40
0.0
 41
1.0
 50
0.0
 71
     0
 42
0.2
  3
txt
  4

  0
ENDTAB
  0
TABLE
  2
VIEW
  5
6
330
0
100
AcDbSymbolTable
 70
     0
  0
ENDTAB
  0
TABLE
  2
UCS
  5
7
330
0
100
AcDbSymbolTable
 70
     0
  0
ENDTAB
  0
TABLE
  2
APPID
  5
9
330
0
100
AcDbSymbolTable
 70
     2
  0
APPID
  5
12
330
9
100
AcDbSymbolTableRecord
100
AcDbRegAppTableRecord
  2
ACAD
 70
     0
  0
APPID
  5
3B7
330
9
100
AcDbSymbolTableRecord
100
AcDbRegAppTableRecord
  2
ACAD_MLEADERVER
 70
     0
  0
ENDTAB
  0
TABLE
  2
DIMSTYLE
  5
A
330
0
100
AcDbSymbolTable
 70
     1
100
AcDbDimStyleTable
  0
DIMSTYLE
105
27
330
A
100
AcDbSymbolTableRecord
100
AcDbDimStyleTableRecord
  2
STANDARD_ACAD
 70
     0
178
     0
340
11
  0
ENDTAB
  0
TABLE
  2
BLOCK_RECORD
  5
1
330
0
100
AcDbSymbolTable
 70
     5
  0
BLOCK_RECORD
  5
1F
330
1
100
AcDbSymbolTableRecord
100
AcDbBlockTableRecord
  2
*Model_Space
340
22
 70
     0
280
     1
281
     0
  0
BLOCK_RECORD
  5
1B
330
1
100
AcDbSymbolTableRecord
100
AcDbBlockTableRecord
  2
*Paper_Space
340
1E
 70
     0
280
     1
281
     0
  0
BLOCK_RECORD
  5
23
330
1
100
AcDbSymbolTableRecord
100
AcDbBlockTableRecord
  2
*Paper_Space0
340
26
 70
     0
280
     1
281
     0
  0
BLOCK_RECORD
  5
6F
330
1
100
AcDbSymbolTableRecord
100
AcDbBlockTableRecord
  2
D81C_1100_ASM
340
0
102
{BLKREFS
331
381
102
}
 70
     0
280
     1
281
     0
  0
BLOCK_RECORD
  5
70
330
1
100
AcDbSymbolTableRecord
100
AcDbBlockTableRecord
  2
D81C_1100
340
0
102
{BLKREFS
331
15D
102
}
 70
     0
280
     1
281
     0
  0
BLOCK_RECORD
  5
15E
330
1
100
AcDbSymbolTableRecord
100
AcDbBlockTableRecord
  2
D8107218_FOND-ROSONE-1100
340
0
102
{BLKREFS
331
309
102
}
 70
     0
280
     1
281
     0
  0
BLOCK_RECORD
  5
30A
330
1
100
AcDbSymbolTableRecord
100
AcDbBlockTableRecord
  2
D8107219_COP-ROSONE-1100
340
0
102
{BLKREFS
331
37E
102
}
 70
     0
280
     1
281
     0
  0
ENDTAB
  0
ENDSEC
  0
SECTION
  2
BLOCKS
  0
BLOCK
  5
20
330
1F
100
AcDbEntity
  8
0
100
AcDbBlockBegin
  2
*Model_Space
 70
     0
 10
0.0
 20
0.0
 30
0.0
  3
*Model_Space
  1

  0
ENDBLK
  5
21
330
1F
100
AcDbEntity
  8
0
100
AcDbBlockEnd
  0
BLOCK
  5
1C
330
1B
100
AcDbEntity
 67
     1
  8
0
100
AcDbBlockBegin
  2
*Paper_Space
 70
     0
 10
0.0
 20
0.0
 30
0.0
  3
*Paper_Space
  1

  0
ENDBLK
  5
1D
330
1B
100
AcDbEntity
 67
     1
  8
0
100
AcDbBlockEnd
  0
BLOCK
  5
24
330
23
100
AcDbEntity
  8
0
100
AcDbBlockBegin
  2
*Paper_Space0
 70
     0
 10
0.0
 20
0.0
 30
0.0
  3
*Paper_Space0
  1

  0
ENDBLK
  5
25
330
23
100
AcDbEntity
  8
0
100
AcDbBlockEnd
  0
BLOCK
  5
37F
330
6F
100
AcDbEntity
  8
0
100
AcDbBlockBegin
  2
D81C_1100_ASM
 70
     0
 10
0.0
 20
0.0
 30
0.0
  3
D81C_1100_ASM
  1

  0
INSERT
  5
15D
330
6F
100
AcDbEntity
  8
Layer 01
100
AcDbBlockReference
  2
D81C_1100
 10
0.0
 20
0.0
 30
0.0
  0
INSERT
  5
309
330
6F
100
AcDbEntity
  8
Layer 01
100
AcDbBlockReference
  2
D8107218_FOND-ROSONE-1100
 10
533.0
 20
1000.0
 30
0.0
  0
INSERT
  5
37E
330
6F
100
AcDbEntity
  8
Layer 01
100
AcDbBlockReference
  2
D8107219_COP-ROSONE-1100
 10
-533.0
 20
1008.8
 30
0.0
 50
180.0
210
0.0
220
0.0
230
-1.0
  0
ENDBLK
  5
380
330
6F
100
AcDbEntity
  8
0
100
AcDbBlockEnd
  0
BLOCK
  5
15B
330
70
100
AcDbEntity
  8
0
100
AcDbBlockBegin
  2
D81C_1100
 70
     0
 10
0.0
 20
0.0
 30
0.0
  3
D81C_1100
  1

  0
ARC
  5
71
330
70
100
AcDbEntity
  8
Layer 01
100
AcDbCircle
 10
10.40205486171154
 20
0.0
 30
21.80978452096772
 40
3.500000000003352
210
0.9862946270633413
220
0.1649936623812705
230
7.000482359107640E-21
100
AcDbArc
 50
180.0
 51
0.0
  0
SPLINE
  5
72
330
70
100
AcDbEntity
  8
Layer 01
100
AcDbSpline
210
0.0
220
0.0
230
1.0
 70
    24
 71
     2
 72
     6
 73
     3
 74
     0
 42
0.000000001
 43
0.0000000001
 40
-1.131370849904505
 40
-1.131370849904505
 40
-1.131370849904505
 40
0.0
 40
0.0
 40
0.0
 10
21.0291187526
 20
11.32696648122
 30
0.0
 10
20.700598366725
 20
10.86645116544
 30
0.0
 10
20.37207798085
 20
10.40593584966
 30
0.0
  0
ARC
  5
73
330
70
100
AcDbEntity
  8
Layer 01
100
AcDbCircle
 10
10.40205486170469
 20
0.0
 30
22.6097845209748
 40
2.699999999999086
210
0.9862946270632966
220
0.1649936623815373
230
2.758008134972518E-22
100
AcDbArc
 50
180.0
 51
0.0
  0
SPLINE
  5
74
330
70
100
AcDbEntity
  8
Layer 01
100
AcDbSpline
210
0.0
220
0.0
230
1.0
 70
    24
 71
     2
 72
     6
 73
     3
 74
     0
 42
0.000000001
 43
0.0000000001
 40
-1.131370849904506
 40
-1.131370849904506
 40
-1.131370849904506
 40
0.0
 40
0.0
 40
0.0
 10
19.21712234418001
 20
17.30999823911
 30
0.0
 10
19.67763765996
 20
16.981477853235
 30
0.0
 10
20.13815297574
 20
16.65295746736
 30
0.0
  0
SPLINE
  5
75
330
70
100
AcDbEntity
  8
Layer 01
100
AcDbSpline
210
0.0
220
0.0
230
1.0
 70
    24
 71
     2
 72
     6
 73
     3
 74
     0
 42
0.000000001
 43
0.0000000001
 40
-0.8636605165401766
 40
-0.8636605165401766
 40
-0.8636605165401766
 40
0.0
 40
0.0
 40
0.0
 10
20.37207798085
 20
10.40593584966
 30
0.0
 10
19.946166117315
 20
10.33468659382
 30
0.0
 10
19.52025425378
 20
10.26343733798
 30
0.0
  0
SPLINE
  5
76
330
70
100
AcDbEntity
  8
Layer 01
100
AcDbSpline
210
0.0
220
0.0
230
1.0
 70
    24
 71
     2
 72
     6
 73
     3
 74
     0
 42
0.000000001
 43
0.0000000001
 40
-0.8636605165401768
 40
-0.8636605165401768
 40
-0.8636605165401768
 40
0.0
 40
0.0
 40
0.0
 10
18.36529861711
 20
17.16749972743
 30
0.0
 10
18.791210480645
 20
17.23874898327
 30
0.0
 10
19.21712234418001
 20
17.30999823911
 30
0.0
  0
SPLINE
  5
77
330
70
100
AcDbEntity
  8
Layer 01
100
AcDbSpline
210
0.0
220
0.0
230
1.0
 70
    24
 71
     2
 72
     6
 73
     3
 74
     0
 42
0.000000001
 43
0.0000000001
 40
-2.336339483457159
 40
-2.336339483457159
 40
-2.336339483457159
 40
0.0
 40
0.0
 40
0.0
 10
14.08839028345
 20
16.45203119472
 30
0.0
 10
15.240549823215
 20
16.64477179869
 30
0.0
 10
16.39270936298
 20
16.83751240266
 30
0.0
  0
ARC
  5
78
330
70
100
AcDbEntity
  8
Layer 01
100
AcDbCircle
 10
10.40205486170516
 20
0.0
 30
16.6097845209685
 40
3.499999999999407
210
0.9862946270633102
220
0.1649936623814562
230
1.486523230695204E-20
100
AcDbArc
 50
180.0
 51
0.0
  0
SPLINE
  5
79
330
70
100
AcDbEntity
  8
Layer 01
100
AcDbSpline
210
0.0
220
0.0
230
1.0
 70
    24
 71
     2
 72
     6
 73
     3
 74
     0
 42
0.000000001
 43
0.0000000001
 40
-2.336339483457655
 40
-2.336339483457655
 40
-2.336339483457655
 40
0.0
 40
0.0
 40
0.0
 10
17.54766499965
 20
9.933450013221
 30
0.0
 10
16.395505459885
 20
9.7407094092495
 30
0.0
 10
15.24334592012
 20
9.547968805278
 30
0.0
  0
SPLINE
  5
7A
330
70
100
AcDbEntity
  8
Layer 01
100
AcDbSpline
 70
     0
 71
     3
 72
    23
 73
    19
 74
     0
 42
0.000000001
 43
0.0000000001
 40
0.0
 40
0.0
 40
0.0
 40
0.0
 40
0.198324020143129
 40
0.3966480402862581
 40
0.5949720604293871
 40
0.7932960805725161
 40
0.9916201007156451
 40
1.189944120858774
 40
1.388268141001903
 40
1.586592161145032
 40
1.784916181288161
 40
1.98324020143129
 40
2.181564221574419
 40
2.379888241717548
 40
2.578212261860677
 40
2.776536282003806
 40
2.974860302146936
 40
3.173184322290064
 40
3.173184322290064
 40
3.173184322290064
 40
3.173184322290064
 10
19.52025425378
 20
10.26343733798
 30
0.0
 10
19.52025425378
 20
10.26343733798
 30
-0.06987463548605
 10
19.50508396079
 20
10.26518101183
 30
-0.2044688584132
 10
19.44643132141
 20
10.27135964676
 30
-0.3875574552998
 10
19.35152509236
 20
10.27957277795
 30
-0.5599575260528
 10
19.22340732883
 20
10.28704264418
 30
-0.7123456320123
 10
19.06582305416
 20
10.29024767108
 30
-0.8390027864366
 10
18.88940354632
 20
10.28549948044
 30
-0.9311066329013
 10
18.70520079045
 20
10.27097717015
 30
-0.9867674864707
 10
18.50798212086
 20
10.24409448901
 30
-1.006783964428
 10
18.31124376195
 20
10.20486251244
 30
-0.9860863810796
 10
18.12850310903
 20
10.15721266872
 30
-0.9276023715797
 10
17.9628353056
 20
10.1046524199
 30
-0.8346425821145
 10
17.81821467499
 20
10.05139901345
 30
-0.709513771087
 10
17.70072710716
 20
10.00309366027
 30
-0.5579426234435
 10
17.61379686621
 20
9.964470435305
 30
-0.3850686978121
 10
17.56063085328
 20
9.939650554186
 30
-0.2000986633913
 10
17.54766499965
 20
9.933450013221
 30
-0.06804405083264
 10
17.54766499965
 20
9.933450013221
 30
0.0
  0
SPLINE
  5
7B
330
70
100
AcDbEntity
  8
Layer 01
100
AcDbSpline
210
0.0
220
0.0
230
1.0
 70
    24
 71
     2
 72
     6
 73
     3
 74
     0
 42
0.000000001
 43
0.0000000001
 40
0.0
 40
0.0
 40
0.0
 40
6.999999999995853
 40
6.999999999995853
 40
6.999999999995853
 10
17.54766499965
 20
9.933450013221
 30
0.0
 10
16.970187181315
 20
13.3854812079405
 30
0.0
 10
16.39270936298
 20
16.83751240266
 30
0.0
  0
SPLINE
  5
7C
330
70
100
AcDbEntity
  8
Layer 01
100
AcDbSpline
 70
     0
 71
     3
 72
    22
 73
    18
 74
     0
 42
0.000000001
 43
0.0000000001
 40
0.0
 40
0.0
 40
0.0
 40
0.0
 40
0.2116783165002947
 40
0.4233566330004624
 40
0.6350349495008525
 40
0.8467132660012425
 40
1.058391582501315
 40
1.270069899001705
 40
1.481748215502095
 40
1.693426532002167
 40
1.905104848502557
 40
2.116783165002947
 40
2.32846148150302
 40
2.54013979800341
 40
2.7518181145038
 40
2.963496431003872
 40
3.175174747504262
 40
3.175174747504262
 40
3.175174747504262
 40
3.175174747504262
 10
16.39270936298
 20
16.83751240266
 30
0.0
 10
16.39270936298
 20
16.83751240266
 30
-0.07283059503884
 10
16.4091266645
 20
16.83562265743
 30
-0.2136772284929
 10
16.47465581739
 20
16.82875602593
 30
-0.4083125602744
 10
16.58224922197
 20
16.81980483856
 30
-0.5905438116322
 10
16.72412463388
 20
16.81250999232
 30
-0.7456156310922
 10
16.89698412666
 20
16.81100023112
 30
-0.8703015437103
 10
17.08698939261
 20
16.81903585569
 30
-0.9556455286551
 10
17.29510248023
 20
16.84002646168
 30
-1.001763948658
 10
17.50734845016
 20
16.87548961649
 30
-1.001888921803
 10
17.70627793794
 20
16.92185013303
 30
-0.9583075582678
 10
17.88989954169
 20
16.97591364231
 30
-0.8747966100326
 10
18.05592773595
 20
17.03438043353
 30
-0.7499196044969
 10
18.19059240393
 20
17.08853021149
 30
-0.5924790471965
 10
18.28885612178
 20
17.13173720956
 30
-0.4121785103265
 10
18.34953014702
 20
17.1599562172
 30
-0.2184354509021
 10
18.36529861711
 20
17.16749972743
 30
-0.07483227655154
 10
18.36529861711
 20
17.16749972743
 30
0.0
  0
SPLINE
  5
7D
330
70
100
AcDbEntity
  8
Layer 01
100
AcDbSpline
210
0.0
220
0.0
230
1.0
 70
    24
 71
     2
 72
     6
 73
     3
 74
     0
 42
0.000000001
 43
0.0000000001
 40
0.0
 40
0.0
 40
0.0
 40
7.000000000006703
 40
7.000000000006703
 40
7.000000000006703
 10
18.36529861711
 20
17.16749972743
 30
0.0
 10
18.942776435445
 20
13.715468532705
 30
0.0
 10
19.52025425378
 20
10.26343733798
 30
0.0
  0
SPLINE
  5
7E
330
70
100
AcDbEntity
  8
Layer 01
100
AcDbSpline
 70
     0
 71
     3
 72
    23
 73
    19
 74
     0
 42
0.000000001
 43
0.0000000001
 40
0.0
 40
0.0
 40
0.0
 40
0.0
 40
0.1983244336746857
 40
0.3966488673493715
 40
0.5949733010240572
 40
0.793297734698743
 40
0.9916221683734288
 40
1.189946602048114
 40
1.3882710357228
 40
1.586595469397486
 40
1.784919903072172
 40
1.983244336746858
 40
2.181568770421543
 40
2.379893204096229
 40
2.578217637770915
 40
2.776542071445601
 40
2.974866505120286
 40
3.173190938794972
 40
3.173190938794972
 40
3.173190938794972
 40
3.173190938794972
 10
18.36529861711
 20
17.16749972743
 30
0.0
 10
18.36529861711
 20
17.16749972743
 30
0.06803601173617
 10
18.3523198625
 20
17.16129252994
 30
0.1999387275341
 10
18.29957546869
 20
17.13667342601
 30
0.3837233550355
 10
18.21347649068
 20
17.09838270975
 30
0.5561474083663
 10
18.09397277797
 20
17.04920358714
 30
0.7107448180464
 10
17.94683830369
 20
16.99516233762
 30
0.8369508327651
 10
17.78237120211
 20
16.94316626648
 30
0.9283556409533
 10
17.60060653075
 20
16.89584008047
 30
0.9862915785338
 10
17.4039225544
 20
16.85667465809
 30
1.006793825898
 10
17.20634082023
 20
16.82980672685
 30
0.9865316209537
 10
17.02142382333
 20
16.81533475973
 30
0.9302609242272
 10
16.84593378508
 20
16.81073250472
 30
0.838042089063
 10
16.69114234083
 20
16.81387724647
 30
0.7135082346732
 10
16.56410703986
 20
16.82117499576
 30
0.5638845075261
 10
16.46686238203
 20
16.82954596332
 30
0.3889308872629
 10
16.40771520225
 20
16.8357889118
 30
0.2039076445653
 10
16.39270936298
 20
16.83751240266
 30
0.06949696269224
 10
16.39270936298
 20
16.83751240266
 30
0.0
  0
SPLINE
  5
7F
330
70
100
AcDbEntity
  8
Layer 01
100
AcDbSpline
 70
     0
 71
     3
 72
    22
 73
    18
 74
     0
 42
0.000000001
 43
0.0000000001
 40
0.0
 40
0.0
 40
0.0
 40
0.0
 40
0.2116787491276906
 40
0.4233574982552541
 40
0.6350362473830401
 40
0.8467149965108259
 40
1.058393745638294
 40
1.27007249476608
 40
1.481751243893866
 40
1.693429993021334
 40
1.90510874214912
 40
2.116787491276906
 40
2.328466240404374
 40
2.54014498953216
 40
2.751823738659946
 40
2.963502487787415
 40
3.1751812369152
 40
3.1751812369152
 40
3.1751812369152
 40
3.1751812369152
 10
17.54766499965
 20
9.933450013221
 30
0.0
 10
17.54766499965
 20
9.933450013221
 30
0.07448013908396
 10
17.56327869948
 20
9.940917164366
 30
0.2179455634675
 10
17.62454212303
 20
9.969429596166
 30
0.4139034764846
 10
17.72523672808
 20
10.01362670835
 30
0.5965400728217
 10
17.8576856887
 20
10.06676337143
 30
0.750059520801
 10
18.02137180061
 20
10.12446598889
 30
0.8737185171392
 10
18.20488872141
 20
10.17863787299
 30
0.9577620643806
 10
18.40442929326
 20
10.22523222268
 30
1.001793149992
 10
18.61681604949
 20
10.26078383399
 30
1.001881089869
 10
18.8244798881
 20
10.28177744747
 30
0.956023685627
 10
19.012604108
 20
10.28987655105
 30
0.8721058987926
 10
19.18677277794
 20
10.28854973854
 30
0.7478319143661
 10
19.33218259344
 20
10.28106279753
 30
0.5889151434653
 10
19.43890190501
 20
10.27212573366
 30
0.4066671069999
 10
19.5037982917
 20
10.26533241642
 30
0.2135566885813
 10
19.52025425378
 20
10.26343733798
 30
0.07283460399246
 10
19.52025425378
 20
10.26343733798
 30
0.0
  0
ARC
  5
80
330
70
100
AcDbEntity
  8
Layer 01
100
AcDbCircle
 10
-10.40205486171155
 20
0.0
 30
-21.80978452096771
 40
3.500000000003352
210
-0.9862946270633413
220
-0.16499366238127
230
0.0
100
AcDbArc
 50
0.000000000000007
 51
180.0
  0
ARC
  5
81
330
70
100
AcDbEntity
  8
Layer 01
100
AcDbCircle
 10
10.40205486170515
 20
0.0
 30
16.60978452096851
 40
3.499999999999407
210
0.9862946270633099
220
0.1649936623814567
230
-1.486523230695204E-20
100
AcDbArc
 50
0.000000000000007
 51
180.0
  0
ARC
  5
82
330
70
100
AcDbEntity
  8
Layer 01
100
AcDbCircle
 10
10.40205486170469
 20
0.0
 30
22.6097845209748
 40
2.699999999999086
210
0.9862946270632966
220
0.1649936623815373
230
2.758008134972518E-22
100
AcDbArc
 50
0.000000000000007
 51
180.0
  0
LINE
  5
83
330
70
100
AcDbEntity
  8
Layer 01
100
AcDbLine
 10
20.1381529757401
 20
16.65295746736002
 30
0.0
 11
21.0291187525999
 21
11.32696648121999
 31
0.0
  0
LINE
  5
84
330
70
100
AcDbEntity
  8
Layer 01
100
AcDbLine
 10
20.58363586417
 20
13.98996197429
 30
2.699999999999086
 11
20.58363586417
 21
13.98996197429
 31
-2.699999999999086
  0
LINE
  5
85
330
70
100
AcDbEntity
  8
Layer 01
100
AcDbLine
 10
20.58363586416836
 20
13.98996197428474
 30
-2.699999999996608
 11
19.79460016251351
 21
13.85796704437884
 31
-3.500000000000872
  0
ARC
  5
86
330
70
100
AcDbEntity
  8
Layer 01
100
AcDbCircle
 10
10.40205486170746
 20
-0.0000000000000569
 30
19.20978452096989
 40
3.499999999999981
210
0.9862946270633028
220
0.1649936623814997
230
3.552713678800499E-15
100
AcDbArc
 50
191.1535760295224
 51
348.8454083766267
  0
LINE
  5
87
330
70
100
AcDbEntity
  8
Layer 01
100
AcDbLine
 10
14.66586810178451
 20
13.00000000000199
 30
-3.499999999999991
 11
19.79460016251485
 21
13.85796704438598
 31
-3.499999999999949
  0
ARC
  5
88
330
70
100
AcDbEntity
  8
Layer 01
100
AcDbCircle
 10
-19.94612400442956
 20
0.0
 30
10.40205486170692
 40
0.9999999999999911
210
-0.1649936623815015
220
0.9862946270633026
230
0.0
100
AcDbArc
 50
180.0
 51
0.0000000000000231
  0
LINE
  5
89
330
70
100
AcDbEntity
  8
Layer 01
100
AcDbLine
 10
18.50988739870748
 20
10.2423419854162
 30
-0.9999999999999949
 11
17.40307296758748
 21
16.85862718578748
 31
-0.9999999999999873
  0
ARC
  5
8A
330
70
100
AcDbEntity
  8
Layer 01
100
AcDbCircle
 10
-19.94612400442956
 20
0.0
 30
10.40205486170692
 40
0.9999999999999911
210
-0.1649936623815015
220
0.9862946270633026
230
0.0
100
AcDbArc
 50
359.9999999999999
 51
180.0
  0
LINE
  5
8B
330
70
100
AcDbEntity
  8
Layer 01
100
AcDbLine
 10
18.50989041743849
 20
10.24232394012809
 30
0.9999999999999949
 11
17.40307623690751
 21
16.85860764253514
 31
0.9999999999999873
  0
ARC
  5
8C
330
70
100
AcDbEntity
  8
Layer 01
100
AcDbCircle
 10
10.40205486170746
 20
0.0000000000000551
 30
19.20978452096989
 40
3.499999999999981
210
0.9862946270633028
220
0.1649936623814997
230
-3.552713678800499E-15
100
AcDbArc
 50
11.15541050081472
 51
168.8431139718292
  0
LINE
  5
8D
330
70
100
AcDbEntity
  8
Layer 01
100
AcDbLine
 10
14.66586810178451
 20
13.00000000000199
 30
3.499999999999988
 11
19.79460016251485
 21
13.85796704438599
 31
3.499999999999948
  0
LINE
  5
8E
330
70
100
AcDbEntity
  8
Layer 01
100
AcDbLine
 10
20.58363586416837
 20
13.98996197428474
 30
2.699999999996606
 11
19.79460016251352
 21
13.85796704437884
 31
3.50000000000087
  0
LINE
  5
8F
330
70
100
AcDbEntity
  8
Layer 01
100
AcDbLine
 10
14.08839028345487
 20
16.45203119472081
 30
0.0
 11
15.24334592012518
 21
9.547968805278867
 31
0.0
  0
LINE
  5
90
330
70
100
AcDbEntity
  8
Layer 01
100
AcDbLine
 10
14.66586810179003
 20
12.99999999999984
 30
3.499999999999407
 11
14.66586810179003
 21
12.99999999999984
 31
-3.499999999999408
  0
ARC
  5
91
330
70
100
AcDbEntity
  8
Layer 01
100
AcDbCircle
 10
-263.6713549068172
 20
-404.7191372758945
 30
-766.732769816548
 40
3.500000000001857
210
-0.4931473135319224
220
0.1649936623787946
230
-0.8541562026532853
100
AcDbArc
 50
344.051260564414
 51
164.0512605658328
  0
SPLINE
  5
92
330
70
100
AcDbEntity
  8
Layer 01
100
AcDbSpline
210
0.0
220
0.0
230
1.0
 70
    24
 71
     2
 72
     6
 73
     3
 74
     0
 42
0.000000001
 43
0.0000000001
 40
-1.131370849882765
 40
-1.131370849882765
 40
-1.131370849882765
 40
0.0
 40
0.0
 40
0.0
 10
788.9854406237
 20
11.32696648122
 30
443.3797891582001
 10
789.14970081665
 20
10.86645116544
 30
443.6642961580001
 10
789.3139610096
 20
10.40593584966
 30
443.9488031578001
  0
ARC
  5
93
330
70
100
AcDbEntity
  8
Layer 01
100
AcDbCircle
 10
-263.6713548931173
 20
-404.7191372821501
 30
-765.9327698179728
 40
2.699999999993337
210
-0.4931473135327444
220
0.1649936623689679
230
-0.854156202654709
100
AcDbArc
 50
344.051260566336
 51
164.0512605663302
  0
SPLINE
  5
94
330
70
100
AcDbEntity
  8
Layer 01
100
AcDbSpline
210
0.0
220
0.0
230
1.0
 70
    24
 71
     2
 72
     6
 73
     3
 74
     0
 42
0.000000001
 43
0.0000000001
 40
-1.131370849916454
 40
-1.131370849916454
 40
-1.131370849916454
 40
0.0
 40
0.0
 40
0.0
 10
789.8914388279
 20
17.30999823911
 30
444.9490240794
 10
789.66118117
 20
16.981477853235
 30
444.5502061170999
 10
789.4309235121
 20
16.65295746736
 30
444.1513881548
  0
SPLINE
  5
95
330
70
100
AcDbEntity
  8
Layer 01
100
AcDbSpline
210
0.0
220
0.0
230
1.0
 70
    24
 71
     2
 72
     6
 73
     3
 74
     0
 42
0.000000001
 43
0.0000000001
 40
-0.8636605165323573
 40
-0.8636605165323573
 40
-0.8636605165323573
 40
0.0
 40
0.0
 40
0.0
 10
789.3139610096
 20
10.40593584966
 30
443.9488031578001
 10
789.52691694135
 20
10.33468659382
 30
444.3176536514001
 10
789.7398728731
 20
10.26343733798
 30
444.686504145
  0
SPLINE
  5
96
330
70
100
AcDbEntity
  8
Layer 01
100
AcDbSpline
210
0.0
220
0.0
230
1.0
 70
    24
 71
     2
 72
     6
 73
     3
 74
     0
 42
0.000000001
 43
0.0000000001
 40
-0.8636605165323574
 40
-0.8636605165323574
 40
-0.8636605165323574
 40
0.0
 40
0.0
 40
0.0
 10
790.3173506914
 20
17.16749972743
 30
445.6867250666
 10
790.10439475965
 20
17.23874898327
 30
445.317874573
 10
789.8914388279
 20
17.30999823911
 30
444.9490240794
  0
SPLINE
  5
97
330
70
100
AcDbEntity
  8
Layer 01
100
AcDbSpline
210
0.0
220
0.0
230
1.0
 70
    24
 71
     2
 72
     6
 73
     3
 74
     0
 42
0.000000001
 43
0.0000000001
 40
-2.336339483475972
 40
-2.336339483475972
 40
-2.336339483475972
 40
0.0
 40
0.0
 40
0.0
 10
792.4558048582999
 20
16.45203119472
 30
449.3906363332
 10
791.8797250883999
 20
16.64477179869
 30
448.39283690255
 10
791.3036453185
 20
16.83751240266
 30
447.3950374719
  0
ARC
  5
98
330
70
100
AcDbEntity
  8
Layer 01
100
AcDbCircle
 10
-263.6713549168147
 20
-404.719137271373
 30
-771.9327698155141
 40
3.500000000002071
210
-0.4931473135313248
220
0.1649936623859389
230
-0.8541562026522503
100
AcDbArc
 50
344.0512605651708
 51
164.0512605651823
  0
SPLINE
  5
99
330
70
100
AcDbEntity
  8
Layer 01
100
AcDbSpline
210
0.0
220
0.0
230
1.0
 70
    24
 71
     2
 72
     6
 73
     3
 74
     0
 42
0.000000001
 43
0.0000000001
 40
-2.336339483427186
 40
-2.336339483427186
 40
-2.336339483427186
 40
0.0
 40
0.0
 40
0.0
 10
790.7261675002
 20
9.933450013221
 30
446.3948165503
 10
791.30224727005
 20
9.7407094092495
 30
447.3926159809499
 10
791.8783270398999
 20
9.547968805278
 30
448.3904154115999
  0
SPLINE
  5
9A
330
70
100
AcDbEntity
  8
Layer 01
100
AcDbSpline
 70
     0
 71
     3
 72
    23
 73
    19
 74
     0
 42
0.000000001
 43
0.0000000001
 40
0.0
 40
0.0
 40
0.0
 40
0.0
 40
0.1983240201443729
 40
0.3966480402887458
 40
0.5949720604331188
 40
0.7932960805774917
 40
0.9916201007218646
 40
1.189944120866238
 40
1.38826814101061
 40
1.586592161154983
 40
1.784916181299356
 40
1.983240201443729
 40
2.181564221588102
 40
2.379888241732475
 40
2.578212261876848
 40
2.776536282021221
 40
2.974860302165594
 40
3.173184322309967
 40
3.173184322309967
 40
3.173184322309967
 40
3.173184322309967
 10
789.7398728731
 20
10.26343733798
 30
444.686504145
 10
789.6793596637
 20
10.26343733798
 30
444.7214414627
 10
789.5703827939
 20
10.26518101183
 30
444.8018764333
 10
789.4411497376
 20
10.27135964676
 30
444.9442154075
 10
789.3393000112
 20
10.27957277795
 30
445.1126066482
 10
789.271386922
 20
10.28704264418
 30
445.299753939
 10
789.240490746
 20
10.29024767108
 30
445.4995545014
 10
789.2489362291
 20
10.28549948044
 30
445.6983902001
 10
789.2928338939
 20
10.27097717015
 30
445.8857448929
 10
789.3741084503
 20
10.24409448901
 30
446.0665495099
 10
789.4904022627
 20
10.20486251244
 30
446.2265811349
 10
789.6324212271
 20
10.15721266872
 30
446.3555971779
 10
789.795760668
 20
10.1046524199
 30
446.4525898095
 10
789.9764357124
 20
10.05139901345
 30
446.515270544
 10
790.1664439607
 20
10.00309366027
 30
446.5412321886
 10
790.3596222924
 20
9.964470435305
 30
446.5300790228
 10
790.5463940476
 20
9.939650554186
 30
446.4836371234
 10
790.6672396236
 20
9.933450013221
 30
446.4288385757
 10
790.7261675002
 20
9.933450013221
 30
446.3948165503
  0
SPLINE
  5
9B
330
70
100
AcDbEntity
  8
Layer 01
100
AcDbSpline
210
0.0
220
0.0
230
1.0
 70
    24
 71
     2
 72
     6
 73
     3
 74
     0
 42
0.000000001
 43
0.0000000001
 40
0.0
 40
0.0
 40
0.0
 40
6.999999999992941
 40
6.999999999992941
 40
6.999999999992941
 10
790.7261675002
 20
9.933450013221
 30
446.3948165503
 10
791.01490640935
 20
13.3854812079405
 30
446.8949270111
 10
791.3036453185
 20
16.83751240266
 30
447.3950374719
  0
SPLINE
  5
9C
330
70
100
AcDbEntity
  8
Layer 01
100
AcDbSpline
 70
     0
 71
     3
 72
    22
 73
    18
 74
     0
 42
0.000000001
 43
0.0000000001
 40
0.0
 40
0.0
 40
0.0
 40
0.0
 40
0.2116783164966033
 40
0.4233566329930797
 40
0.6350349494897783
 40
0.846713265986477
 40
1.058391582482858
 40
1.270069898979557
 40
1.481748215476255
 40
1.693426531972636
 40
1.905104848469335
 40
2.116783164966034
 40
2.328461481462414
 40
2.540139797959113
 40
2.751818114455812
 40
2.963496430952193
 40
3.175174747448891
 40
3.175174747448891
 40
3.175174747448891
 40
3.175174747448891
 10
791.3036453185
 20
16.83751240266
 30
447.3950374719
 10
791.240572173
 20
16.83751240266
 30
447.4314527694
 10
791.1103867597
 20
16.83562265743
 30
447.487658286
 10
790.9090630414
 20
16.82875602593
 30
447.5282260408
 10
790.6974494461
 20
16.81980483856
 30
447.5261630448
 10
790.4922156051
 20
16.81250999232
 30
447.4808312437
 10
790.2978046909
 20
16.81100023112
 30
447.3934734879
 10
790.1288919989
 20
16.81903585569
 30
447.2715960932
 10
789.9848957318
 20
16.84002646168
 30
447.1144240825
 10
789.8786645169
 20
16.87548961649
 30
446.9306761673
 10
789.8169423409
 20
16.92185013303
 30
446.7366074955
 10
789.7974541417
 20
16.97591364231
 30
446.5358310479
 10
789.8225867037
 20
17.03438043353
 30
446.3296079111
 10
789.891601892
 20
17.08853021149
 30
446.134264609
 10
789.9986148783
 20
17.13173720956
 30
445.9590154647
 10
790.1360642769
 20
17.1599562172
 30
445.8095986877
 10
790.2525440389
 20
17.16749972743
 30
445.7241412049
 10
790.3173506914
 20
17.16749972743
 30
445.6867250666
  0
SPLINE
  5
9D
330
70
100
AcDbEntity
  8
Layer 01
100
AcDbSpline
210
0.0
220
0.0
230
1.0
 70
    24
 71
     2
 72
     6
 73
     3
 74
     0
 42
0.000000001
 43
0.0000000001
 40
0.0
 40
0.0
 40
0.0
 40
7.00000000000377
 40
7.00000000000377
 40
7.00000000000377
 10
790.3173506914
 20
17.16749972743
 30
445.6867250666
 10
790.02861178225
 20
13.715468532705
 30
445.1866146058
 10
789.7398728731
 20
10.26343733798
 30
444.686504145
  0
SPLINE
  5
9E
330
70
100
AcDbEntity
  8
Layer 01
100
AcDbSpline
 70
     0
 71
     3
 72
    23
 73
    19
 74
     0
 42
0.000000001
 43
0.0000000001
 40
0.0
 40
0.0
 40
0.0
 40
0.0
 40
0.1983244336785369
 40
0.3966488673570737
 40
0.5949733010356106
 40
0.7932977347141474
 40
0.9916221683926842
 40
1.189946602071221
 40
1.388271035749758
 40
1.586595469428295
 40
1.784919903106832
 40
1.983244336785368
 40
2.181568770463906
 40
2.379893204142443
 40
2.578217637820979
 40
2.776542071499516
 40
2.974866505178053
 40
3.17319093885659
 40
3.17319093885659
 40
3.17319093885659
 40
3.17319093885659
 10
790.3173506914
 20
17.16749972743
 30
445.6867250666
 10
790.376271606
 20
17.16749972743
 30
445.6527070607
 10
790.496992086
 20
17.16129252994
 30
445.597995634
 10
790.6825264391
 20
17.13667342601
 30
445.5517813052
 10
790.8748995386
 20
17.09838270975
 30
445.5401331808
 10
791.068536679
 20
17.04920358714
 30
445.566327727
 10
791.251401531
 20
16.99516233762
 30
445.6306469121
 10
791.4127939678
 20
16.94316626648
 30
445.7273771961
 10
791.5538502972
 20
16.89584008047
 30
445.8558220502
 10
791.6699477524
 20
16.85667465809
 30
446.0159042465
 10
791.7511910353
 20
16.82980672685
 30
446.1971461501
 10
791.7949176809
 20
16.81533475973
 30
446.3854243154
 10
791.802798846
 20
16.81073250472
 30
446.5835125642
 10
791.7723450866
 20
16.81387724647
 30
446.7798328144
 10
791.7062847884
 20
16.82117499576
 30
446.9646604758
 10
791.6033928377
 20
16.82954596332
 30
447.13635363
 10
791.4727315991
 20
16.8357889118
 30
447.2800882116
 10
791.3638314537
 20
16.83751240266
 30
447.3602889906
 10
791.3036453185
 20
16.83751240266
 30
447.3950374719
  0
SPLINE
  5
9F
330
70
100
AcDbEntity
  8
Layer 01
100
AcDbSpline
 70
     0
 71
     3
 72
    22
 73
    18
 74
     0
 42
0.000000001
 43
0.0000000001
 40
0.0
 40
0.0
 40
0.0
 40
0.0
 40
0.2116787491260179
 40
0.4233574982519088
 40
0.635036247378022
 40
0.8467149965041352
 40
1.058393745629931
 40
1.270072494756044
 40
1.481751243882157
 40
1.693429993007953
 40
1.905108742134066
 40
2.116787491260179
 40
2.328466240385974
 40
2.540144989512088
 40
2.751823738638201
 40
2.963502487763996
 40
3.17518123689011
 40
3.17518123689011
 40
3.17518123689011
 40
3.17518123689011
 10
790.7261675002
 20
9.933450013221
 30
446.3948165503
 10
790.7906691927
 20
9.933450013221
 30
446.3575764808
 10
790.9071070449
 20
9.940917164366
 30
446.2723219079
 10
791.0461798638
 20
9.969429596166
 30
446.1212872703
 10
791.1540004934
 20
10.01362670835
 30
445.9427648861
 10
791.220727755
 20
10.06676337143
 30
445.7513009975
 10
791.2459765313
 20
10.12446598889
 30
445.5477151682
 10
791.2270019178
 20
10.17863787299
 30
445.3467630791
 10
791.1653636706
 20
10.22523222268
 30
445.151940332
 10
791.0592464507
 20
10.26078383399
 30
444.9679640357
 10
790.9157008543
 20
10.28177744747
 30
444.8110505782
 10
790.7489638091
 20
10.28987655105
 30
444.6900891181
 10
790.5542550466
 20
10.28854973854
 30
444.6013916176
 10
790.3439241782
 20
10.28106279753
 30
444.5549214089
 10
790.132733093
 20
10.27212573366
 30
444.5536237922
 10
789.9330463716
 20
10.26533241642
 30
444.5939770819
 10
789.8029494904
 20
10.26343733798
 30
444.650086843
 10
789.7398728731
 20
10.26343733798
 30
444.686504145
  0
ARC
  5
A0
330
70
100
AcDbEntity
  8
Layer 01
100
AcDbCircle
 10
263.6713549068264
 20
-404.7191372758901
 30
766.7327698165468
 40
3.500000000001888
210
0.4931473135319219
220
-0.1649936623788014
230
0.8541562026532844
100
AcDbArc
 50
195.9487394355889
 51
15.94873943416788
  0
ARC
  5
A1
330
70
100
AcDbEntity
  8
Layer 01
100
AcDbCircle
 10
-263.6713549168434
 20
-404.7191372713601
 30
-771.9327698155109
 40
3.500000000002071
210
-0.493147313531323
220
0.1649936623859594
230
-0.8541562026522475
100
AcDbArc
 50
164.0512605651844
 51
344.0512605651667
  0
ARC
  5
A2
330
70
100
AcDbEntity
  8
Layer 01
100
AcDbCircle
 10
-263.6713548930908
 20
-404.7191372821621
 30
-765.9327698179757
 40
2.69999999999332
210
-0.493147313532746
220
0.164993662368949
230
-0.8541562026547116
100
AcDbArc
 50
164.0512605663264
 51
344.0512605663409
  0
LINE
  5
A3
330
70
100
AcDbEntity
  8
Layer 01
100
AcDbLine
 10
789.4309235121145
 20
16.65295746735436
 30
444.1513881548306
 11
788.9854406236857
 21
11.32696648122568
 31
443.3797891581692
  0
LINE
  5
A4
330
70
100
AcDbEntity
  8
Layer 01
100
AcDbLine
 10
791.5464506581123
 20
13.98996197428985
 30
442.4155886565031
 11
786.8699134776881
 21
13.98996197428974
 31
445.1155886564966
  0
LINE
  5
A5
330
70
100
AcDbEntity
  8
Layer 01
100
AcDbLine
 10
786.8699134776941
 20
13.98996197428404
 30
445.1155886564835
 11
786.5716110054917
 21
13.85796704437868
 31
446.198913618607
  0
LINE
  5
A6
330
70
100
AcDbEntity
  8
Layer 01
100
AcDbLine
 10
788.9854406237031
 20
11.32696648119695
 30
443.3797891581609
 11
789.3139610095714
 21
10.40593584965389
 31
443.9488031578067
  0
ARC
  5
A7
330
70
100
AcDbEntity
  8
Layer 01
100
AcDbCircle
 10
-263.6713549105582
 20
-404.7191372741815
 30
-769.3327698162096
 40
3.500000000000348
210
-0.4931473135317916
220
0.1649936623814904
230
-0.8541562026528401
100
AcDbArc
 50
355.2048365952381
 51
152.89666894063
  0
LINE
  5
A8
330
70
100
AcDbEntity
  8
Layer 01
100
AcDbLine
 10
789.1359770358931
 20
13.00000000000383
 30
450.6405258723792
 11
786.5716110055288
 21
13.85796704438716
 31
446.198913618587
  0
ARC
  5
A9
330
70
100
AcDbEntity
  8
Layer 01
100
AcDbCircle
 10
-786.6414064207571
 20
430.1191932762106
 30
142.3034047849538
 40
1.000000000000023
210
0.08249683119061346
220
0.9862946270633377
230
0.142888703085651
100
AcDbArc
 50
300.3435549013911
 51
120.3435549013871
  0
LINE
  5
AA
330
70
100
AcDbEntity
  8
Layer 01
100
AcDbLine
 10
789.3790308968719
 20
10.24234198542118
 30
446.0615075086362
 11
789.9324381124303
 21
16.85862718579263
 31
447.0200369232593
  0
ARC
  5
AB
330
70
100
AcDbEntity
  8
Layer 01
100
AcDbCircle
 10
-786.6414064207396
 20
430.1191932761544
 30
142.3255836773187
 40
1.000000000000209
210
0.08249683119083662
220
0.9862946270632871
230
0.1428887030858711
100
AcDbArc
 50
120.3435549010605
 51
300.3435549027743
  0
LINE
  5
AC
330
70
100
AcDbEntity
  8
Layer 01
100
AcDbLine
 10
790.7261675001835
 20
9.933450013221256
 30
446.3948165503077
 11
791.3036453185184
 21
16.83751240265724
 31
447.3950374719086
  0
LINE
  5
AD
330
70
100
AcDbEntity
  8
Layer 01
100
AcDbLine
 10
791.1110801950751
 20
10.24232394012742
 30
445.0615048943384
 11
791.6644872853416
 21
16.85860764252939
 31
446.0200340919471
  0
LINE
  5
AE
330
70
100
AcDbEntity
  8
Layer 01
100
AcDbLine
 10
789.7398728731196
 20
10.26343733797821
 30
444.6865041450011
 11
790.3173506914561
 21
17.16749972742504
 31
445.6867250666019
  0
ARC
  5
AF
330
70
100
AcDbEntity
  8
Layer 01
100
AcDbCircle
 10
-263.671354910377
 20
-404.7191372743435
 30
-769.3327698162113
 40
3.500000000000276
210
-0.4931473135317195
220
0.1649936623813338
230
-0.8541562026529121
100
AcDbArc
 50
175.2066710645518
 51
332.8943745380815
  0
LINE
  5
B0
330
70
100
AcDbEntity
  8
Layer 01
100
AcDbLine
 10
792.4558048583147
 20
16.45203119472222
 30
449.3906363331919
 11
791.3036453185407
 21
16.83751240266703
 31
447.3950374718779
  0
LINE
  5
B1
330
70
100
AcDbEntity
  8
Layer 01
100
AcDbLine
 10
795.1981548623843
 20
13.00000000000278
 30
447.140525872378
 11
792.6337888320206
 21
13.8579670443846
 31
442.6989136185852
  0
LINE
  5
B2
330
70
100
AcDbEntity
  8
Layer 01
100
AcDbLine
 10
791.8783270399631
 20
9.5479688052841
 30
448.3904154115646
 11
790.7261675002126
 21
9.933450013220872
 31
446.3948165502926
  0
LINE
  5
B3
330
70
100
AcDbEntity
  8
Layer 01
100
AcDbLine
 10
789.7398728731429
 20
10.2634373379856
 30
444.6865041449763
 11
789.3139610096114
 21
10.40593584966244
 31
443.9488031577938
  0
LINE
  5
B4
330
70
100
AcDbEntity
  8
Layer 01
100
AcDbLine
 10
788.9854406237034
 20
11.32696648119702
 30
443.3797891581607
 11
789.1532417549282
 21
10.85652388915734
 31
443.6704292430098
  0
LINE
  5
B5
330
70
100
AcDbEntity
  8
Layer 01
100
AcDbLine
 10
791.5464506581312
 20
13.98996197428421
 30
442.4155886564826
 11
792.6337888319852
 21
13.85796704437888
 31
442.6989136186052
  0
LINE
  5
B6
330
70
100
AcDbEntity
  8
Layer 01
100
AcDbLine
 10
789.43092351212
 20
16.65295746734472
 30
444.1513881548012
 11
789.8914388279052
 21
17.30999823910061
 31
444.9490240794048
  0
LINE
  5
B7
330
70
100
AcDbEntity
  8
Layer 01
100
AcDbLine
 10
792.4558048582674
 20
16.45203119472263
 30
449.3906363332005
 11
791.8783270399318
 21
9.547968805275397
 31
448.3904154115993
  0
LINE
  5
B8
330
70
100
AcDbEntity
  8
Layer 01
100
AcDbLine
 10
795.1981548623469
 20
12.99999999999939
 30
447.1405258723988
 11
789.1359770358524
 21
12.99999999999925
 31
450.6405258724012
  0
ARC
  5
B9
330
70
100
AcDbEntity
  8
Layer 01
100
AcDbCircle
 10
-263.6713549068075
 20
404.7191372758993
 30
-766.7327698165489
 40
3.500000000001864
210
-0.4931473135319229
220
0.1649936623787877
230
0.8541562026532863
100
AcDbArc
 50
195.9487394341729
 51
15.94873943558042
  0
SPLINE
  5
BA
330
70
100
AcDbEntity
  8
Layer 01
100
AcDbSpline
210
0.0
220
0.0
230
1.0
 70
    24
 71
     2
 72
     6
 73
     3
 74
     0
 42
0.000000001
 43
0.0000000001
 40
-1.131370849916454
 40
-1.131370849916454
 40
-1.131370849916454
 40
0.0
 40
0.0
 40
0.0
 10
789.4309235121
 20
16.65295746736
 30
-444.1513881548
 10
789.66118117
 20
16.981477853235
 30
-444.5502061170999
 10
789.8914388279
 20
17.30999823911
 30
-444.9490240794
  0
ARC
  5
BB
330
70
100
AcDbEntity
  8
Layer 01
100
AcDbCircle
 10
-263.6713548930786
 20
404.7191372821675
 30
-765.932769817977
 40
2.699999999993316
210
-0.4931473135327468
220
0.1649936623689402
230
0.8541562026547128
100
AcDbArc
 50
195.9487394336626
 51
15.94873943366635
  0
SPLINE
  5
BC
330
70
100
AcDbEntity
  8
Layer 01
100
AcDbSpline
210
0.0
220
0.0
230
1.0
 70
    24
 71
     2
 72
     6
 73
     3
 74
     0
 42
0.000000001
 43
0.0000000001
 40
-1.131370849882765
 40
-1.131370849882765
 40
-1.131370849882765
 40
0.0
 40
0.0
 40
0.0
 10
789.3139610096
 20
10.40593584966
 30
-443.9488031578001
 10
789.14970081665
 20
10.86645116544
 30
-443.6642961580001
 10
788.9854406237
 20
11.32696648122
 30
-443.3797891582001
  0
SPLINE
  5
BD
330
70
100
AcDbEntity
  8
Layer 01
100
AcDbSpline
210
0.0
220
0.0
230
1.0
 70
    24
 71
     2
 72
     6
 73
     3
 74
     0
 42
0.000000001
 43
0.0000000001
 40
-0.8636605165323574
 40
-0.8636605165323574
 40
-0.8636605165323574
 40
0.0
 40
0.0
 40
0.0
 10
789.8914388279
 20
17.30999823911
 30
-444.9490240794
 10
790.10439475965
 20
17.23874898327
 30
-445.317874573
 10
790.3173506914
 20
17.16749972743
 30
-445.6867250666
  0
SPLINE
  5
BE
330
70
100
AcDbEntity
  8
Layer 01
100
AcDbSpline
210
0.0
220
0.0
230
1.0
 70
    24
 71
     2
 72
     6
 73
     3
 74
     0
 42
0.000000001
 43
0.0000000001
 40
-0.8636605165323573
 40
-0.8636605165323573
 40
-0.8636605165323573
 40
0.0
 40
0.0
 40
0.0
 10
789.7398728731
 20
10.26343733798
 30
-444.686504145
 10
789.52691694135
 20
10.33468659382
 30
-444.3176536514001
 10
789.3139610096
 20
10.40593584966
 30
-443.9488031578001
  0
SPLINE
  5
BF
330
70
100
AcDbEntity
  8
Layer 01
100
AcDbSpline
210
0.0
220
0.0
230
1.0
 70
    24
 71
     2
 72
     6
 73
     3
 74
     0
 42
0.000000001
 43
0.0000000001
 40
-2.336339483427186
 40
-2.336339483427186
 40
-2.336339483427186
 40
0.0
 40
0.0
 40
0.0
 10
791.8783270398999
 20
9.547968805278
 30
-448.3904154115999
 10
791.30224727005
 20
9.7407094092495
 30
-447.3926159809499
 10
790.7261675002
 20
9.933450013221
 30
-446.3948165503
  0
ARC
  5
C0
330
70
100
AcDbEntity
  8
Layer 01
100
AcDbCircle
 10
-263.671354916794
 20
404.7191372713824
 30
-771.9327698155164
 40
3.500000000002046
210
-0.4931473135313261
220
0.1649936623859241
230
0.8541562026522524
100
AcDbArc
 50
195.9487394348165
 51
15.94873943482794
  0
SPLINE
  5
C1
330
70
100
AcDbEntity
  8
Layer 01
100
AcDbSpline
210
0.0
220
0.0
230
1.0
 70
    24
 71
     2
 72
     6
 73
     3
 74
     0
 42
0.000000001
 43
0.0000000001
 40
-2.336339483475972
 40
-2.336339483475972
 40
-2.336339483475972
 40
0.0
 40
0.0
 40
0.0
 10
791.3036453185
 20
16.83751240266
 30
-447.3950374719
 10
791.8797250883999
 20
16.64477179869
 30
-448.39283690255
 10
792.4558048582999
 20
16.45203119472
 30
-449.3906363332
  0
SPLINE
  5
C2
330
70
100
AcDbEntity
  8
Layer 01
100
AcDbSpline
 70
     0
 71
     3
 72
    23
 73
    19
 74
     0
 42
0.000000001
 43
0.0000000001
 40
0.0
 40
0.0
 40
0.0
 40
0.0
 40
0.1983244336703474
 40
0.3966488673406947
 40
0.5949733010110421
 40
0.7932977346813894
 40
0.9916221683517368
 40
1.189946602022084
 40
1.388271035692431
 40
1.586595469362779
 40
1.784919903033126
 40
1.983244336703474
 40
2.181568770373821
 40
2.379893204044168
 40
2.578217637714515
 40
2.776542071384863
 40
2.974866505055211
 40
3.173190938725558
 40
3.173190938725558
 40
3.173190938725558
 40
3.173190938725558
 10
790.3173506914
 20
17.16749972743
 30
-445.6867250666
 10
790.2584297769
 20
17.16749972743
 30
-445.7207430725
 10
790.1506880515
 20
17.16129252994
 30
-445.7979343616
 10
790.0178980922
 20
17.13667342601
 30
-445.9355046603
 10
789.9116239708
 20
17.09838270975
 30
-446.0962805891
 10
789.837490543
 20
17.04920358714
 30
-446.277072545
 10
789.8017601653
 20
16.99516233762
 30
-446.4675977449
 10
789.8048348301
 20
16.94316626648
 30
-446.655732837
 10
789.8455431721
 20
16.89584008047
 30
-446.8421136287
 10
789.9261296932
 20
16.85667465809
 30
-447.0226980724
 10
790.0424681445
 20
16.82980672685
 30
-447.1836777711
 10
790.1836584958
 20
16.81533475973
 30
-447.3156852396
 10
790.3512673689
 20
16.81073250472
 30
-447.4215546533
 10
790.5365125725
 20
16.81387724647
 30
-447.4933410491
 10
790.7296081718
 20
16.82117499576
 30
-447.5285449833
 10
790.9297447803
 20
16.82954596332
 30
-447.5252845173
 10
791.1195531987
 20
16.8357889118
 30
-447.4839958562
 10
791.2434591833
 20
16.83751240266
 30
-447.4297859533
 10
791.3036453185
 20
16.83751240266
 30
-447.3950374719
  0
SPLINE
  5
C3
330
70
100
AcDbEntity
  8
Layer 01
100
AcDbSpline
210
0.0
220
0.0
230
1.0
 70
    24
 71
     2
 72
     6
 73
     3
 74
     0
 42
0.000000001
 43
0.0000000001
 40
0.0
 40
0.0
 40
0.0
 40
6.999999999992941
 40
6.999999999992941
 40
6.999999999992941
 10
791.3036453185
 20
16.83751240266
 30
-447.3950374719
 10
791.01490640935
 20
13.3854812079405
 30
-446.8949270111
 10
790.7261675002
 20
9.933450013221
 30
-446.3948165503
  0
SPLINE
  5
C4
330
70
100
AcDbEntity
  8
Layer 01
100
AcDbSpline
 70
     0
 71
     3
 72
    22
 73
    18
 74
     0
 42
0.000000001
 43
0.0000000001
 40
0.0
 40
0.0
 40
0.0
 40
0.0
 40
0.211678749126595
 40
0.423357498253063
 40
0.6350362473797534
 40
0.8467149965064437
 40
1.058393745632816
 40
1.270072494759507
 40
1.481751243886197
 40
1.69342999301257
 40
1.90510874213926
 40
2.11678749126595
 40
2.328466240392323
 40
2.540144989519014
 40
2.751823738645704
 40
2.963502487772077
 40
3.175181236898767
 40
3.175181236898767
 40
3.175181236898767
 40
3.175181236898767
 10
790.7261675002
 20
9.933450013221
 30
-446.3948165503
 10
790.6616658076
 20
9.933450013221
 30
-446.4320566198
 10
790.5296142557
 20
9.940917164366
 30
-446.4902674713
 10
790.3292780131
 20
9.969429596166
 30
-446.5351907467
 10
790.1207627785
 20
10.01362670835
 30
-446.5393049589
 10
789.9215865563
 20
10.06676337143
 30
-446.5013605183
 10
789.7326516681
 20
10.12446598889
 30
-446.4214336853
 10
789.5681093608
 20
10.17863787299
 30
-446.3045251435
 10
789.4302070361
 20
10.22523222268
 30
-446.153733482
 10
789.3239374999
 20
10.26078383399
 30
-445.9698451256
 10
789.2598192576
 20
10.28177744747
 30
-445.7670742638
 10
789.2384320829
 20
10.28987655105
 30
-445.5621950169
 10
789.2589721754
 20
10.28854973854
 30
-445.349223532
 10
789.3238932284
 20
10.28106279753
 30
-445.1438365523
 10
789.4283650019
 20
10.27212573366
 30
-444.9602908992
 10
789.5631553367
 20
10.26533241642
 30
-444.8075337705
 10
789.6767962558
 20
10.26343733798
 30
-444.722921447
 10
789.7398728731
 20
10.26343733798
 30
-444.686504145
  0
SPLINE
  5
C5
330
70
100
AcDbEntity
  8
Layer 01
100
AcDbSpline
210
0.0
220
0.0
230
1.0
 70
    24
 71
     2
 72
     6
 73
     3
 74
     0
 42
0.000000001
 43
0.0000000001
 40
0.0
 40
0.0
 40
0.0
 40
7.00000000000377
 40
7.00000000000377
 40
7.00000000000377
 10
789.7398728731
 20
10.26343733798
 30
-444.686504145
 10
790.02861178225
 20
13.715468532705
 30
-445.1866146058
 10
790.3173506914
 20
17.16749972743
 30
-445.6867250666
  0
SPLINE
  5
C6
330
70
100
AcDbEntity
  8
Layer 01
100
AcDbSpline
 70
     0
 71
     3
 72
    23
 73
    19
 74
     0
 42
0.000000001
 43
0.0000000001
 40
0.0
 40
0.0
 40
0.0
 40
0.0
 40
0.1983240201438317
 40
0.3966480402876634
 40
0.5949720604314951
 40
0.7932960805753267
 40
0.9916201007191584
 40
1.18994412086299
 40
1.388268141006822
 40
1.586592161150653
 40
1.784916181294485
 40
1.983240201438317
 40
2.181564221582148
 40
2.37988824172598
 40
2.578212261869812
 40
2.776536282013644
 40
2.974860302157475
 40
3.173184322301307
 40
3.173184322301307
 40
3.173184322301307
 40
3.173184322301307
 10
789.7398728731
 20
10.26343733798
 30
-444.686504145
 10
789.8003860825
 20
10.26343733798
 30
-444.6515668273
 10
789.9245332453
 20
10.26518101183
 30
-444.5974075749
 10
790.112418941
 20
10.27135964676
 30
-444.5566579522
 10
790.3091748964
 20
10.27957277795
 30
-444.5526491221
 10
790.5052057492
 20
10.28704264418
 30
-444.587408307
 10
790.6936861998
 20
10.29024767108
 30
-444.6605517149
 10
790.8616602246
 20
10.28549948044
 30
-444.7672835672
 10
791.0019653157
 20
10.27097717015
 30
-444.8989774065
 10
791.1179094289
 20
10.24409448901
 30
-445.0597655454
 10
791.1983539754
 20
10.20486251244
 30
-445.2404947538
 10
791.2390756639
 20
10.15721266873
 30
-445.4279948063
 10
791.2414040264
 20
10.1046524199
 30
-445.6179472274
 10
791.2053496126
 20
10.05139901345
 30
-445.8057567729
 10
791.1328289322
 20
10.00309366027
 30
-445.9832895651
 10
791.0265808414
 20
9.964470435305
 30
-446.145010325
 10
790.8929750991
 20
9.939650554186
 30
-446.28353846
 10
790.7850953768
 20
9.933450013221
 30
-446.3607945249
 10
790.7261675002
 20
9.933450013221
 30
-446.3948165503
  0
SPLINE
  5
C7
330
70
100
AcDbEntity
  8
Layer 01
100
AcDbSpline
 70
     0
 71
     3
 72
    22
 73
    18
 74
     0
 42
0.000000001
 43
0.0000000001
 40
0.0
 40
0.0
 40
0.0
 40
0.0
 40
0.2116783165040799
 40
0.4233566330080329
 40
0.6350349495122081
 40
0.8467132660163833
 40
1.058391582520241
 40
1.270069899024416
 40
1.481748215528591
 40
1.693426532032449
 40
1.905104848536624
 40
2.1167831650408
 40
2.328461481544657
 40
2.540139798048832
 40
2.751818114553008
 40
2.963496431056865
 40
3.17517474756104
 40
3.17517474756104
 40
3.17517474756104
 40
3.17517474756104
 10
791.3036453185
 20
16.83751240266
 30
-447.3950374719
 10
791.366718464
 20
16.83751240266
 30
-447.3586221744
 10
791.4804865758
 20
16.83562265743
 30
-447.2739810575
 10
791.6162811412
 20
16.82875602593
 30
-447.1199134805
 10
791.7203013319
 20
16.81980483856
 30
-446.9356192332
 10
791.783659761
 20
16.81250999232
 30
-446.7352156126
 10
791.8052111825
 20
16.81100023112
 30
-446.5231719442
 10
791.7841186085
 20
16.81903585569
 30
-446.3159505646
 10
791.720001788
 20
16.84002646168
 30
-446.1126601338
 10
791.613987033
 20
16.87548961649
 30
-445.9287872455
 10
791.4767797211
 20
16.92185013303
 30
-445.7782999372
 10
791.3126463166
 20
16.97591364231
 30
-445.6610344378
 10
791.1214855603
 20
17.03438043353
 30
-445.5796883066
 10
790.9178057041
 20
17.08853021149
 30
-445.5417855618
 10
790.7125289999
 20
17.13173720956
 30
-445.5468369543
 10
790.5144055761
 20
17.1599562172
 30
-445.5911632368
 10
790.382157344
 20
17.16749972743
 30
-445.6493089283
 10
790.3173506914
 20
17.16749972743
 30
-445.6867250666
  0
ARC
  5
C8
330
70
100
AcDbEntity
  8
Layer 01
100
AcDbCircle
 10
263.6713549068265
 20
404.7191372758903
 30
766.732769816547
 40
3.500000000001887
210
0.4931473135319219
220
-0.1649936623788014
230
-0.8541562026532842
100
AcDbArc
 50
344.0512605658319
 51
164.0512605644131
  0
ARC
  5
C9
330
70
100
AcDbEntity
  8
Layer 01
100
AcDbCircle
 10
-263.671354916845
 20
404.7191372713595
 30
-771.9327698155112
 40
3.50000000000208
210
-0.4931473135313229
220
0.1649936623859605
230
0.8541562026522472
100
AcDbArc
 50
15.94873943483127
 51
195.9487394348195
  0
ARC
  5
CA
330
70
100
AcDbEntity
  8
Layer 01
100
AcDbCircle
 10
-263.6713548930662
 20
404.7191372821732
 30
-765.932769817978
 40
2.699999999993318
210
-0.4931473135327474
220
0.1649936623689312
230
0.854156202654714
100
AcDbArc
 50
15.94873943366635
 51
195.9487394336613
  0
LINE
  5
CB
330
70
100
AcDbEntity
  8
Layer 01
100
AcDbLine
 10
789.4309235121143
 20
16.65295746735434
 30
-444.1513881548307
 11
788.9854406236856
 21
11.32696648122567
 31
-443.3797891581692
  0
LINE
  5
CC
330
70
100
AcDbEntity
  8
Layer 01
100
AcDbLine
 10
786.8699134776878
 20
13.98996197428996
 30
-445.1155886564968
 11
791.5464506581121
 21
13.98996197429007
 31
-442.4155886565032
  0
LINE
  5
CD
330
70
100
AcDbEntity
  8
Layer 01
100
AcDbLine
 10
786.8699134776941
 20
13.98996197428393
 30
-445.1155886564835
 11
786.5716110054916
 21
13.85796704437858
 31
-446.1989136186069
  0
ARC
  5
CE
330
70
100
AcDbEntity
  8
Layer 01
100
AcDbCircle
 10
-263.6713549105582
 20
404.7191372741815
 30
-769.3327698162096
 40
3.500000000000348
210
-0.4931473135317916
220
0.1649936623814904
230
0.8541562026528401
100
AcDbArc
 50
207.1041499362825
 51
4.791853405942224
  0
LINE
  5
CF
330
70
100
AcDbEntity
  8
Layer 01
100
AcDbLine
 10
789.1359770358931
 20
13.00000000000383
 30
-450.6405258723792
 11
786.5716110055287
 21
13.85796704438716
 31
-446.198913618587
  0
ARC
  5
D0
330
70
100
AcDbEntity
  8
Layer 01
100
AcDbCircle
 10
-786.6414064207482
 20
-430.1191932761665
 30
142.3033426551881
 40
1.000000000000167
210
0.08249683119072368
220
0.9862946270632961
230
-0.1428887030858724
100
AcDbArc
 50
239.6564450988982
 51
59.6564450980967
  0
LINE
  5
D1
330
70
100
AcDbEntity
  8
Layer 01
100
AcDbLine
 10
789.3790293875063
 20
10.24232394012856
 30
-446.0615048943381
 11
789.9324364777711
 21
16.85860764252963
 31
-447.0200340919469
  0
ARC
  5
D2
330
70
100
AcDbEntity
  8
Layer 01
100
AcDbCircle
 10
-786.6414064207484
 20
-430.1191932761828
 30
142.3256135475662
 40
1.000000000000196
210
0.08249683119072446
220
0.9862946270633126
230
-0.14288870308576
100
AcDbArc
 50
59.65644509856136
 51
239.6564450985742
  0
LINE
  5
D3
330
70
100
AcDbEntity
  8
Layer 01
100
AcDbLine
 10
791.1110817044402
 20
10.24234198541354
 30
-445.0615075086355
 11
791.6644889200002
 21
16.85862718578697
 31
-446.02003692326
  0
ARC
  5
D4
330
70
100
AcDbEntity
  8
Layer 01
100
AcDbCircle
 10
-263.671354910377
 20
404.7191372743433
 30
-769.3327698162118
 40
3.49999999999995
210
-0.4931473135317195
220
0.1649936623813338
230
0.8541562026529121
100
AcDbArc
 50
27.10231546331347
 51
184.7941478131209
  0
LINE
  5
D5
330
70
100
AcDbEntity
  8
Layer 01
100
AcDbLine
 10
795.1981548623843
 20
13.00000000000275
 30
-447.1405258723781
 11
792.6337888320206
 21
13.85796704438458
 31
-442.6989136185852
  0
LINE
  5
D6
330
70
100
AcDbEntity
  8
Layer 01
100
AcDbLine
 10
792.4558048583147
 20
16.45203119472215
 30
-449.3906363331919
 11
791.3036453185407
 21
16.83751240266698
 31
-447.3950374718778
  0
LINE
  5
D7
330
70
100
AcDbEntity
  8
Layer 01
100
AcDbLine
 10
789.43092351212
 20
16.65295746734453
 30
-444.1513881548012
 11
789.8914388279053
 21
17.30999823910049
 31
-444.9490240794049
  0
LINE
  5
D8
330
70
100
AcDbEntity
  8
Layer 01
100
AcDbLine
 10
791.5464506581311
 20
13.98996197428403
 30
-442.4155886564824
 11
792.6337888319852
 21
13.85796704437874
 31
-442.6989136186049
  0
LINE
  5
D9
330
70
100
AcDbEntity
  8
Layer 01
100
AcDbLine
 10
788.9854406237034
 20
11.32696648119696
 30
-443.3797891581607
 11
789.3139610095715
 21
10.40593584965394
 31
-443.9488031578064
  0
LINE
  5
DA
330
70
100
AcDbEntity
  8
Layer 01
100
AcDbLine
 10
792.4558048582675
 20
16.45203119472263
 30
-449.3906363332006
 11
791.8783270399318
 21
9.547968805275397
 31
-448.3904154115993
  0
LINE
  5
DB
330
70
100
AcDbEntity
  8
Layer 01
100
AcDbLine
 10
789.1359770358523
 20
12.99999999999925
 30
-450.6405258724012
 11
795.1981548623469
 21
12.99999999999939
 31
-447.1405258723988
  0
ARC
  5
DC
330
70
100
AcDbEntity
  8
Layer 01
100
AcDbCircle
 10
29.6525565001369
 20
-9.387569832194002
 30
17.10815837426664
 40
3.999999999996798
210
0.986144409614363
220
0.1649936623815765
230
0.01721321469841935
100
AcDbArc
 50
179.8349900384705
 51
359.8349900384847
  0
SPLINE
  5
DD
330
70
100
AcDbEntity
  8
Layer 01
100
AcDbSpline
210
0.0
220
0.0
230
1.0
 70
    24
 71
     2
 72
     6
 73
     3
 74
     0
 42
0.000000001
 43
0.0000000001
 40
-0.7071067811826184
 40
-0.7071067811826184
 40
-0.7071067811826184
 40
0.0
 40
0.0
 40
0.0
 10
13.2077428837
 20
28.72590452987999
 30
-9.07300759715
 10
13.00244891456
 20
28.43808245752
 30
-9.076591016711
 10
12.79715494542
 20
28.15026038516
 30
-9.080174436272
  0
ARC
  5
DE
330
70
100
AcDbEntity
  8
Layer 01
100
AcDbCircle
 10
29.65255650014377
 20
-9.38756983219308
 30
17.60815837425217
 40
3.499999999998231
210
0.9861444096144307
220
0.1649936623811715
230
0.01721321469842053
100
AcDbArc
 50
179.8349900384731
 51
359.8349900384761
  0
SPLINE
  5
DF
330
70
100
AcDbEntity
  8
Layer 01
100
AcDbSpline
210
0.0
220
0.0
230
1.0
 70
    24
 71
     2
 72
     6
 73
     3
 74
     0
 42
0.000000001
 43
0.0000000001
 40
-0.7071067811852407
 40
-0.7071067811852407
 40
-0.7071067811852407
 40
0.0
 40
0.0
 40
0.0
 10
11.47740668104
 20
36.04061740166
 30
-9.103210727915
 10
11.765184916705
 20
35.83529216049
 30
-9.0981875401265
 10
12.05296315237
 20
35.62996691932
 30
-9.093164352338
  0
SPLINE
  5
E0
330
70
100
AcDbEntity
  8
Layer 01
100
AcDbSpline
210
0.0
220
0.0
230
1.0
 70
    24
 71
     2
 72
     6
 73
     3
 74
     0
 42
0.000000001
 43
0.0000000001
 40
-0.5000991404215579
 40
-0.5000991404215579
 40
-0.5000991404215579
 40
0.0
 40
0.0
 40
0.0
 10
10.98423670946
 20
35.95810421293
 30
-9.11181904179
 10
11.23082169525
 20
35.999360807295
 30
-9.107514884852499
 10
11.47740668104
 20
36.04061740166
 30
-9.103210727915
  0
ARC
  5
E1
330
70
100
AcDbEntity
  8
Layer 01
100
AcDbCircle
 10
29.65255650013745
 20
-9.387569832193325
 30
16.6080592338382
 40
4.000000000001733
210
0.9861444096143968
220
0.164993662381375
230
0.01721321469841996
100
AcDbArc
 50
179.8349900384706
 51
359.8349900384706
  0
SPLINE
  5
E2
330
70
100
AcDbEntity
  8
Layer 01
100
AcDbSpline
210
0.0
220
0.0
230
1.0
 70
    24
 71
     2
 72
     6
 73
     3
 74
     0
 42
0.000000001
 43
0.0000000001
 40
-0.5000991404231908
 40
-0.5000991404231908
 40
-0.5000991404231908
 40
0.0
 40
0.0
 40
0.0
 10
12.79715494542
 20
28.15026038516
 30
-9.080174436272
 10
12.55056995963
 20
28.10900379079
 30
-9.084478593208999
 10
12.30398497384
 20
28.06774719642
 30
-9.088782750145999
  0
ARC
  5
E3
330
70
100
AcDbEntity
  8
Layer 01
100
AcDbCircle
 10
-29.65255650013689
 20
-9.387569832194
 30
-17.10815837426663
 40
3.999999999996798
210
-0.986144409614363
220
-0.1649936623815763
230
-0.01721321469841935
100
AcDbArc
 50
0.1650099615295184
 51
180.1650099615153
  0
ARC
  5
E4
330
70
100
AcDbEntity
  8
Layer 01
100
AcDbCircle
 10
29.65255650013744
 20
-9.387569832193327
 30
16.60805923383821
 40
4.00000000000172
210
0.9861444096143966
220
0.1649936623813753
230
0.01721321469841994
100
AcDbArc
 50
359.8349900384706
 51
179.8349900384706
  0
ARC
  5
E5
330
70
100
AcDbEntity
  8
Layer 01
100
AcDbCircle
 10
29.65255650014377
 20
-9.387569832193076
 30
17.60815837425217
 40
3.499999999998231
210
0.9861444096144306
220
0.1649936623811714
230
0.01721321469842053
100
AcDbArc
 50
359.834990038476
 51
179.8349900384732
  0
ARC
  5
E6
330
70
100
AcDbEntity
  8
Layer 01
100
AcDbCircle
 10
-29.65255650013712
 20
-9.38756983218329
 30
-17.60815837426766
 40
1.500000000000397
210
-0.9861444096143872
220
-0.1649936623814962
230
-0.01721321469780367
100
AcDbArc
 50
90.16500996155318
 51
270.1650099614891
  0
ARC
  5
E7
330
70
100
AcDbEntity
  8
Layer 01
100
AcDbCircle
 10
-29.65255650014037
 20
-9.38756983218249
 30
-16.60805923384326
 40
1.499999999998398
210
-0.9861444096143868
220
-0.1649936623814961
230
-0.01721321469782837
100
AcDbArc
 50
90.16500996155219
 51
270.1650099614906
  0
SPLINE
  5
E8
330
70
100
AcDbEntity
  8
Layer 01
100
AcDbSpline
210
0.0
220
0.0
230
1.0
 70
    24
 71
     2
 72
     6
 73
     3
 74
     0
 42
0.000000001
 43
0.0000000001
 40
0.0
 40
0.0
 40
0.0
 40
1.000099140424203
 40
1.000099140424203
 40
1.000099140424203
 10
11.61793223199
 20
32.01292570468
 30
-7.600529353233999
 10
12.111053320185
 20
32.09543071464
 30
-7.591921892622
 10
12.60417440838
 20
32.1779357246
 30
-7.58331443201
  0
ARC
  5
E9
330
70
100
AcDbEntity
  8
Layer 01
100
AcDbCircle
 10
-29.65255650013714
 20
-9.38756983218331
 30
-17.60815837426764
 40
1.500000000000397
210
-0.9861444096143872
220
-0.1649936623814961
230
-0.01721321469780484
100
AcDbArc
 50
270.1650099614898
 51
90.1650099615525
  0
ARC
  5
EA
330
70
100
AcDbEntity
  8
Layer 01
100
AcDbCircle
 10
-29.65255650014036
 20
-9.38756983218252
 30
-16.60805923384324
 40
1.499999999998397
210
-0.9861444096143868
220
-0.1649936623814961
230
-0.01721321469783013
100
AcDbArc
 50
270.1650099614901
 51
90.16500996155273
  0
SPLINE
  5
EB
330
70
100
AcDbEntity
  8
Layer 01
100
AcDbSpline
210
0.0
220
0.0
230
1.0
 70
    24
 71
     2
 72
     6
 73
     3
 74
     0
 42
0.000000001
 43
0.0000000001
 40
0.0
 40
0.0
 40
0.0
 40
1.000099140424135
 40
1.000099140424135
 40
1.000099140424135
 10
11.6702894513
 20
32.01292570468
 30
-10.6000724387
 10
12.163410539495
 20
32.09543071464
 30
-10.59146497809
 10
12.65653162769
 20
32.1779357246
 30
-10.58285751748
  0
LINE
  5
EC
330
70
100
AcDbEntity
  8
Layer 01
100
AcDbLine
 10
12.0529631523739
 20
35.62996691932065
 30
-9.093164352338096
 11
12.38290021846868
 21
33.65737766519535
 31
-9.087405279427186
  0
LINE
  5
ED
330
70
100
AcDbEntity
  8
Layer 01
100
AcDbLine
 10
12.87780581761132
 20
30.69849378400465
 30
-9.078766670060812
 11
13.20774288370583
 21
28.72590452988096
 31
-9.073007597149907
  0
LINE
  5
EE
330
70
100
AcDbEntity
  8
Layer 01
100
AcDbLine
 10
12.56926959550938
 20
32.17793572460089
 30
-5.583619041698402
 11
12.60417440838393
 21
32.17793572460089
 31
-7.583314432009931
  0
LINE
  5
EF
330
70
100
AcDbEntity
  8
Layer 01
100
AcDbLine
 10
12.6565316276958
 20
32.17793572460089
 30
-10.5828575174799
 11
12.69143644057032
 21
32.17793572460089
 31
-12.5825529077896
  0
LINE
  5
F0
330
70
100
AcDbEntity
  8
Layer 01
100
AcDbLine
 10
12.6897733257139
 20
32.18787744721732
 30
-12.58256742049919
 11
12.20518973629098
 21
32.10680086211542
 31
-13.09109994866872
  0
LINE
  5
F1
330
70
100
AcDbEntity
  8
Layer 01
100
AcDbLine
 10
13.20791640721444
 20
28.72591884580445
 30
-9.08308597474424
 11
12.79735325800629
 21
28.15027674621769
 31
-9.091692582093401
  0
ARC
  5
F2
330
70
100
AcDbEntity
  8
Layer 01
100
AcDbCircle
 10
29.65255650011852
 20
-9.387569832194696
 30
16.85810880405113
 40
3.999999999999996
210
0.9861444096143844
220
0.164993662381448
230
0.01721321469842249
100
AcDbArc
 50
179.834990038473
 51
359.8349900384814
  0
LINE
  5
F3
330
70
100
AcDbEntity
  8
Layer 01
100
AcDbLine
 10
11.71392046740209
 20
32.01292570465755
 30
-13.09969167659485
 11
12.20709043898258
 21
32.09543889338966
 31
-13.09108336272027
  0
LINE
  5
F4
330
70
100
AcDbEntity
  8
Layer 01
100
AcDbLine
 10
10.98423670946322
 20
35.95810421291084
 30
-9.111819041791115
 11
11.4774066810429
 21
36.04061740164281
 31
-9.103210727916544
  0
ARC
  5
F5
330
70
100
AcDbEntity
  8
Layer 01
100
AcDbCircle
 10
29.65255650011852
 20
-9.38756983219464
 30
16.8581088040511
 40
4.000000000000001
210
0.9861444096143844
220
0.1649936623814483
230
0.01721321469841897
100
AcDbArc
 50
359.8349900384844
 51
179.834990038473
  0
LINE
  5
F6
330
70
100
AcDbEntity
  8
Layer 01
100
AcDbLine
 10
11.57430121590381
 20
32.01292570465755
 30
-5.100910115343723
 11
12.06747118748429
 21
32.09543889338966
 31
-5.092301801469136
  0
LINE
  5
F7
330
70
100
AcDbEntity
  8
Layer 01
100
AcDbLine
 10
12.57093271035892
 20
32.16799400197754
 30
-5.583604528989845
 11
12.06937189017113
 21
32.08407692469856
 31
-5.092285215518667
  0
LINE
  5
F8
330
70
100
AcDbEntity
  8
Layer 01
100
AcDbLine
 10
12.05278962885819
 20
35.62995260339152
 30
-9.083085974744286
 11
11.47720836845533
 21
36.04060104059922
 31
-9.09169258209348
  0
LINE
  5
F9
330
70
100
AcDbEntity
  8
Layer 01
100
AcDbLine
 10
10.98423670946052
 20
35.95810421293009
 30
-9.111819041789827
 11
11.39665804207901
 21
33.4923676452734
 31
-9.104620200651189
  0
LINE
  5
FA
330
70
100
AcDbEntity
  8
Layer 01
100
AcDbLine
 10
11.89156364122099
 20
30.53348376408662
 30
-9.095981591284826
 11
12.30398497384111
 21
28.06774719642019
 31
-9.08878275014616
  0
LINE
  5
FB
330
70
100
AcDbEntity
  8
Layer 01
100
AcDbLine
 10
11.57430121590164
 20
32.01292570467513
 30
-5.100910115340703
 11
11.6179322319949
 21
32.01292570467513
 31
-7.600529353233913
  0
LINE
  5
FC
330
70
100
AcDbEntity
  8
Layer 01
100
AcDbLine
 10
11.6702894513067
 20
32.01292570467513
 30
-10.60007243869988
 11
11.71392046739999
 21
32.01292570467513
 31
-13.09969167659529
  0
ARC
  5
FD
330
70
100
AcDbEntity
  8
Layer 01
100
AcDbCircle
 10
29.65255650013708
 20
-9.387569832193215
 30
17.1081088040501
 40
1.500000000000005
210
0.986144409614376
220
0.1649936623814981
230
0.01721321469841897
100
AcDbArc
 50
269.8349900384729
 51
89.83499003846659
  0
LINE
  5
FE
330
70
100
AcDbEntity
  8
Layer 01
100
AcDbLine
 10
11.39665804207436
 20
33.49236764527097
 30
-9.104620200651093
 11
12.38290021846379
 21
33.65737766519413
 31
-9.087405279427262
  0
ARC
  5
FF
330
70
100
AcDbEntity
  8
Layer 01
100
AcDbCircle
 10
29.65255650013711
 20
-9.387569832193154
 30
17.10810880405003
 40
1.500000000000004
210
0.9861444096143767
220
0.1649936623814947
230
0.01721321469841543
100
AcDbArc
 50
89.83499003839846
 51
269.8349900385628
  0
LINE
  5
100
330
70
100
AcDbEntity
  8
Layer 01
100
AcDbLine
 10
11.61793223199063
 20
32.01292570467614
 30
-7.600529353233307
 11
12.6041744083801
 21
32.17793572459932
 31
-7.583314432009486
  0
LINE
  5
101
330
70
100
AcDbEntity
  8
Layer 01
100
AcDbLine
 10
11.89156364121701
 20
30.53348376408105
 30
-9.095981591284726
 11
12.87780581760644
 21
30.69849378400421
 31
-9.078766670060903
  0
LINE
  5
102
330
70
100
AcDbEntity
  8
Layer 01
100
AcDbLine
 10
11.67028945130074
 20
32.01292570467586
 30
-10.60007243870252
 11
12.65653162769014
 21
32.17793572459902
 31
-10.5828575174787
  0
ARC
  5
103
330
70
100
AcDbEntity
  8
Layer 01
100
AcDbCircle
 10
-0.0000000000000172
 20
33.9999999999993
 30
-0.0000000000000653
 40
11.00000000000429
210
-1.224646799146953E-16
220
-6.554075513790859E-29
230
-1.0
100
AcDbArc
 50
9.496866303712004
 51
170.5031336962881
  0
ARC
  5
104
330
70
100
AcDbEntity
  8
Layer 01
100
AcDbCircle
 10
-533.0000000001501
 20
0.0
 30
35.81493028620001
 40
543.84924089785
210
-4.601281539279378E-60
220
1.0
230
-5.009642009961221E-44
100
AcDbArc
 50
180.0
 51
0.000000000000007
  0
ARC
  5
105
330
70
100
AcDbEntity
  8
Layer 01
100
AcDbCircle
 10
532.9999999998499
 20
0.0
 30
-35.8149302862
 40
522.15075910215
210
0.0
220
-1.0
230
0.0
100
AcDbArc
 50
180.0
 51
0.0
  0
ARC
  5
106
330
70
100
AcDbEntity
  8
Layer 01
100
AcDbCircle
 10
1066.0
 20
33.99999999994912
 30
-0.0000000000000171
 40
11.00000000030854
100
AcDbArc
 50
9.49686630371186
 51
170.5031336962882
  0
ARC
  5
107
330
70
100
AcDbEntity
  8
Layer 01
100
AcDbCircle
 10
532.9999999998499
 20
0.0
 30
-35.8149302862
 40
522.15075910215
210
-6.803999835046630E-18
220
-1.0
230
8.332496619388961E-34
100
AcDbArc
 50
0.0
 51
180.0
  0
ARC
  5
108
330
70
100
AcDbEntity
  8
Layer 01
100
AcDbCircle
 10
-533.0000000001501
 20
0.0
 30
35.81493028620001
 40
543.84924089785
210
-6.135042052373182E-60
220
1.0
230
-5.009642009961221E-44
100
AcDbArc
 50
0.000000000000014
 51
180.0
  0
SPLINE
  5
109
330
70
100
AcDbEntity
  8
Layer 01
100
AcDbSpline
210
0.0
220
0.0
230
1.0
 70
    24
 71
     2
 72
     6
 73
     3
 74
     0
 42
0.000000001
 43
0.0000000001
 40
0.0
 40
0.0
 40
0.0
 40
35.72201702032265
 40
35.72201702032265
 40
35.72201702032265
 10
10.84924089769996
 20
35.8149302862
 30
0.0000000000000639
 10
13.79619410561499
 20
18.19871355869535
 30
0.0000000000000636
 10
16.74314731353001
 20
0.5824968311907001
 30
0.0000000000000632
  0
SPLINE
  5
10A
330
70
100
AcDbEntity
  8
Layer 01
100
AcDbSpline
210
0.0
220
0.0
230
1.0
 70
    24
 71
     2
 72
     6
 73
     3
 74
     0
 42
0.000000001
 43
0.0000000001
 40
-35.72201702035068
 40
-35.72201702035068
 40
-35.72201702035068
 40
0.0
 40
0.0
 40
0.0
 10
1049.256852686
 20
0.5824968311907015
 30
-0.0000000000000316
 10
1052.203805894
 20
18.19871355869535
 30
-0.0000000000000318
 10
1055.150759102
 20
35.8149302862
 30
-0.000000000000032
  0
ARC
  5
10B
330
70
100
AcDbEntity
  8
Layer 01
100
AcDbCircle
 10
-16.25
 20
0.4999999999986032
 30
-0.0000000000000633
 40
0.4999999999986032
210
0.0
220
-1.036797535523314E-16
230
-1.0
100
AcDbArc
 50
170.5031336961233
 51
270.0
  0
ARC
  5
10C
330
70
100
AcDbEntity
  8
Layer 01
100
AcDbCircle
 10
-532.999999999765
 20
0.0
 30
0.5824968311907
 40
516.256852686235
210
-1.505367169837726E-18
220
1.0
230
1.843543087018698E-34
100
AcDbArc
 50
180.0
 51
0.000000000000007
  0
ARC
  5
10D
330
70
100
AcDbEntity
  8
Layer 01
100
AcDbCircle
 10
533.0
 20
0.0
 30
0.0
 40
516.75
210
0.0
220
-1.0
230
0.0
100
AcDbArc
 50
180.0
 51
0.0
  0
ARC
  5
10E
330
70
100
AcDbEntity
  8
Layer 01
100
AcDbCircle
 10
1049.75
 20
0.5000000003965324
 30
-0.0000000000000271
 40
0.5000000003965324
100
AcDbArc
 50
170.5031337499828
 51
270.0
  0
ARC
  5
10F
330
70
100
AcDbEntity
  8
Layer 01
100
AcDbCircle
 10
533.0
 20
0.0
 30
0.0
 40
516.75
210
0.0
220
-1.0
230
0.0
100
AcDbArc
 50
0.0
 51
180.0
  0
ARC
  5
110
330
70
100
AcDbEntity
  8
Layer 01
100
AcDbCircle
 10
-532.999999999765
 20
0.0
 30
0.5824968311907001
 40
516.256852686235
210
1.075262264169805E-19
220
1.0
230
-1.316816480705855E-35
100
AcDbArc
 50
0.000000000000014
 51
180.0
  0
SPLINE
  5
111
330
70
100
AcDbEntity
  8
Layer 01
100
AcDbSpline
210
0.0
220
0.0
230
1.0
 70
    24
 71
     2
 72
     6
 73
     3
 74
     0
 42
0.000000001
 43
0.0000000001
 40
-8.219641111386498
 40
-8.219641111386498
 40
-8.219641111386498
 40
0.0
 40
0.0
 40
0.0
 10
15.0
 20
0.0
 30
0.0000000000000423
 10
13.50852177705498
 20
3.8296367596
 30
0.000000000000053
 10
12.01704355410997
 20
7.6592735192
 30
0.0000000000000638
  0
ARC
  5
112
330
70
100
AcDbEntity
  8
Layer 01
100
AcDbCircle
 10
-533.0
 20
0.0
 30
0.0
 40
518.0
210
1.582025704064810E-61
220
1.0
230
3.875466065398322E-45
100
AcDbArc
 50
180.0
 51
0.0000000000000047
  0
SPLINE
  5
113
330
70
100
AcDbEntity
  8
Layer 01
100
AcDbSpline
210
0.0
220
0.0
230
1.0
 70
    24
 71
     2
 72
     6
 73
     3
 74
     0
 42
0.000000001
 43
0.0000000001
 40
-8.219641111426377
 40
-8.219641111426377
 40
-8.219641111426377
 40
0.0
 40
0.0
 40
0.0
 10
1053.982956446
 20
7.6592735192
 30
-0.0000000000000319
 10
1052.491478223
 20
3.8296367596
 30
-0.00000000000003
 10
1051.0
 20
0.0
 30
-0.0000000000000282
  0
ARC
  5
114
330
70
100
AcDbEntity
  8
Layer 01
100
AcDbCircle
 10
533.0000000000549
 20
0.0
 30
-7.6592735192
 40
520.982956445945
210
1.512309317105992E-60
220
-1.0
230
1.234894271686245E-44
100
AcDbArc
 50
180.0
 51
0.0
  0
ARC
  5
115
330
70
100
AcDbEntity
  8
Layer 01
100
AcDbCircle
 10
533.0000000000549
 20
0.0
 30
-7.6592735192
 40
520.982956445945
210
1.134231987829427E-60
220
-1.0
230
1.234894271686245E-44
100
AcDbArc
 50
0.0
 51
180.0
  0
ARC
  5
116
330
70
100
AcDbEntity
  8
Layer 01
100
AcDbCircle
 10
-533.0
 20
0.0
 30
0.0
 40
518.0
210
1.582025704064848E-61
220
1.0
230
3.875466065398322E-45
100
AcDbArc
 50
0.0000000000000117
 51
180.0
  0
SPLINE
  5
117
330
70
100
AcDbEntity
  8
Layer 01
100
AcDbSpline
210
0.0
220
0.0
230
1.0
 70
    24
 71
     2
 72
     6
 73
     3
 74
     0
 42
0.000000001
 43
0.0000000001
 40
-0.7063811845129999
 40
-0.7063811845129999
 40
-0.7063811845129999
 40
0.0
 40
0.0
 40
0.0
 10
12.01704355410996
 20
8.365654703713
 30
0.0000000000000425
 10
12.01704355410996
 20
8.0124641114565
 30
0.0000000000000532
 10
12.01704355410997
 20
7.6592735192
 30
0.0000000000000638
  0
ARC
  5
118
330
70
100
AcDbEntity
  8
Layer 01
100
AcDbCircle
 10
533.0000000000549
 20
0.0
 30
-8.365654703713
 40
520.982956445945
210
0.0
220
-1.0
230
0.0
100
AcDbArc
 50
0.0000000000000023
 51
180.0
  0
SPLINE
  5
119
330
70
100
AcDbEntity
  8
Layer 01
100
AcDbSpline
210
0.0
220
0.0
230
1.0
 70
    24
 71
     2
 72
     6
 73
     3
 74
     0
 42
0.000000001
 43
0.0000000001
 40
-0.7063811845129999
 40
-0.7063811845129999
 40
-0.7063811845129999
 40
0.0
 40
0.0
 40
0.0
 10
1053.982956446
 20
7.6592735192
 30
-0.0000000000000319
 10
1053.982956446
 20
8.0124641114565
 30
-0.0000000000000301
 10
1053.982956446
 20
8.365654703713
 30
-0.0000000000000284
  0
ARC
  5
11A
330
70
100
AcDbEntity
  8
Layer 01
100
AcDbCircle
 10
533.0000000000549
 20
0.0
 30
-8.365654703713
 40
520.982956445945
210
0.0
220
-1.0
230
0.0
100
AcDbArc
 50
180.0
 51
0.0
  0
SPLINE
  5
11B
330
70
100
AcDbEntity
  8
Layer 01
100
AcDbSpline
210
0.0
220
0.0
230
1.0
 70
    24
 71
     2
 72
     6
 73
     3
 74
     0
 42
0.000000001
 43
0.0000000001
 40
0.0
 40
0.0
 40
0.0
 40
0.7063811845129999
 40
0.7063811845129999
 40
0.7063811845129999
 10
-12.01704355410997
 20
7.6592735192
 30
0.0000000000000667
 10
-12.01704355410996
 20
8.0124641114565
 30
0.0000000000000556
 10
-12.01704355410996
 20
8.365654703713
 30
0.0000000000000445
  0
ARC
  5
11C
330
70
100
AcDbEntity
  8
Layer 01
100
AcDbCircle
 10
-532.999999999945
 20
0.0
 30
8.365654703713
 40
545.0170435540549
210
0.0
220
1.0
230
0.0
100
AcDbArc
 50
180.0
 51
0.0000000000000047
  0
SPLINE
  5
11D
330
70
100
AcDbEntity
  8
Layer 01
100
AcDbSpline
210
0.0
220
0.0
230
1.0
 70
    24
 71
     2
 72
     6
 73
     3
 74
     0
 42
0.000000001
 43
0.0000000001
 40
0.0
 40
0.0
 40
0.0
 40
0.7063811845129999
 40
0.7063811845129999
 40
0.7063811845129999
 10
1078.017043554
 20
8.365654703713
 30
-0.0000000000000297
 10
1078.017043554
 20
8.0124641114565
 30
-0.0000000000000315
 10
1078.017043554
 20
7.6592735192
 30
-0.0000000000000334
  0
ARC
  5
11E
330
70
100
AcDbEntity
  8
Layer 01
100
AcDbCircle
 10
-532.9999999999451
 20
0.0
 30
7.6592735192
 40
545.017043554055
210
0.0
220
1.0
230
0.0
100
AcDbArc
 50
180.0
 51
0.000000000000007
  0
ARC
  5
11F
330
70
100
AcDbEntity
  8
Layer 01
100
AcDbCircle
 10
-532.9999999999451
 20
0.0
 30
7.6592735192
 40
545.017043554055
210
0.0
220
1.0
230
0.0
100
AcDbArc
 50
0.000000000000014
 51
180.0
  0
ARC
  5
120
330
70
100
AcDbEntity
  8
Layer 01
100
AcDbCircle
 10
-532.9999999999451
 20
0.0
 30
8.365654703713
 40
545.017043554055
210
0.0
220
1.0
230
0.0
100
AcDbArc
 50
0.0000000000000117
 51
180.0
  0
SPLINE
  5
121
330
70
100
AcDbEntity
  8
Layer 01
100
AcDbSpline
210
0.0
220
0.0
230
1.0
 70
    24
 71
     2
 72
     6
 73
     3
 74
     0
 42
0.000000001
 43
0.0000000001
 40
0.0
 40
0.0
 40
0.0
 40
8.219641111386498
 40
8.219641111386498
 40
8.219641111386498
 10
-12.01704355410997
 20
7.6592735192
 30
0.0000000000000667
 10
-13.50852177705498
 20
3.8296367596
 30
0.0000000000000557
 10
-15.0
 20
0.0
 30
0.0000000000000447
  0
ARC
  5
122
330
70
100
AcDbEntity
  8
Layer 01
100
AcDbCircle
 10
-533.0
 20
0.0
 30
0.0
 40
548.0
210
-1.787599665609880E-62
220
1.0
230
-4.379057701015053E-46
100
AcDbArc
 50
0.0000000000000117
 51
180.0
  0
SPLINE
  5
123
330
70
100
AcDbEntity
  8
Layer 01
100
AcDbSpline
210
0.0
220
0.0
230
1.0
 70
    24
 71
     2
 72
     6
 73
     3
 74
     0
 42
0.000000001
 43
0.0000000001
 40
0.0
 40
0.0
 40
0.0
 40
8.219641111426377
 40
8.219641111426377
 40
8.219641111426377
 10
1081.0
 20
0.0
 30
-0.0000000000000298
 10
1079.508521777
 20
3.8296367596
 30
-0.0000000000000316
 10
1078.017043554
 20
7.6592735192
 30
-0.0000000000000334
  0
ARC
  5
124
330
70
100
AcDbEntity
  8
Layer 01
100
AcDbCircle
 10
-533.0
 20
0.0
 30
0.0
 40
548.0
210
-1.787599665609879E-62
220
1.0
230
-4.379057701015053E-46
100
AcDbArc
 50
180.0
 51
0.0000000000000047
  0
ARC
  5
125
330
70
100
AcDbEntity
  8
Layer 01
100
AcDbCircle
 10
-533.0000000001983
 20
0.0
 30
0.4999999999999999
 40
549.7500000001983
210
1.514628955831864E-19
220
1.0
230
0.0
100
AcDbArc
 50
180.0
 51
0.0
  0
ARC
  5
126
330
70
100
AcDbEntity
  8
Layer 01
100
AcDbCircle
 10
16.25
 20
0.4999999999986093
 30
-0.0000000000000673
 40
0.4999999999986093
210
-2.877691239394488E-33
220
1.036797535473949E-16
230
-1.0
100
AcDbArc
 50
270.0
 51
0.0000000001499886
  0
ARC
  5
127
330
70
100
AcDbEntity
  8
Layer 01
100
AcDbCircle
 10
16.24999999999979
 20
0.4999999999985727
 30
-0.0000000000000673
 40
0.4999999999988241
210
-6.340430099319060E-28
220
1.036797535474880E-16
230
-1.0
100
AcDbArc
 50
0.0000000001541933
 51
9.496866303887662
  0
ARC
  5
128
330
70
100
AcDbEntity
  8
Layer 01
100
AcDbCircle
 10
-533.0
 20
0.0
 30
0.0
 40
549.25
210
0.0
220
1.0
230
0.0
100
AcDbArc
 50
180.0
 51
0.000000000000007
  0
ARC
  5
129
330
70
100
AcDbEntity
  8
Layer 01
100
AcDbCircle
 10
533.000000000235
 20
0.0
 30
-0.5824968311907999
 40
549.743147313765
210
-1.009765224041527E-19
220
-1.0
230
1.236605749503667E-35
100
AcDbArc
 50
180.0
 51
0.0
  0
ARC
  5
12A
330
70
100
AcDbEntity
  8
Layer 01
100
AcDbCircle
 10
1082.25
 20
0.5000000003965
 30
-0.0000000000000448
 40
0.5000000003965397
100
AcDbArc
 50
270.0
 51
359.9999999545644
  0
ARC
  5
12B
330
70
100
AcDbEntity
  8
Layer 01
100
AcDbCircle
 10
1082.249999999998
 20
0.500000000396251
 30
0.0
 40
0.5000000003983507
100
AcDbArc
 50
359.999999954593
 51
9.49686625002474
  0
ARC
  5
12C
330
70
100
AcDbEntity
  8
Layer 01
100
AcDbCircle
 10
533.000000000235
 20
0.0
 30
-0.5824968311907999
 40
549.743147313765
210
-6.058591344249163E-19
220
-1.0
230
7.419634497067326E-35
100
AcDbArc
 50
0.0
 51
180.0
  0
ARC
  5
12D
330
70
100
AcDbEntity
  8
Layer 01
100
AcDbCircle
 10
-533.0
 20
0.0
 30
0.0
 40
549.25
210
0.0
220
1.0
230
0.0
100
AcDbArc
 50
0.000000000000007
 51
180.0
  0
ARC
  5
12E
330
70
100
AcDbEntity
  8
Layer 01
100
AcDbCircle
 10
-533.0000000000007
 20
0.0
 30
0.4999999999999195
 40
549.7499999999993
210
-7.431779409951035E-17
220
1.0
230
0.0
100
AcDbArc
 50
0.000000000000007
 51
180.0
  0
SPLINE
  5
12F
330
70
100
AcDbEntity
  8
Layer 01
100
AcDbSpline
210
0.0
220
0.0
230
1.0
 70
    24
 71
     2
 72
     6
 73
     3
 74
     0
 42
0.000000001
 43
0.0000000001
 40
-35.72201702032255
 40
-35.72201702032255
 40
-35.72201702032255
 40
0.0
 40
0.0
 40
0.0
 10
-10.84924089769996
 20
35.81493028620001
 30
0.0000000000000666
 10
-13.79619410561499
 20
18.19871355869541
 30
0.000000000000067
 10
-16.74314731353001
 20
0.5824968311908
 30
0.0000000000000673
  0
SPLINE
  5
130
330
70
100
AcDbEntity
  8
Layer 01
100
AcDbSpline
210
0.0
220
0.0
230
1.0
 70
    24
 71
     2
 72
     6
 73
     3
 74
     0
 42
0.000000001
 43
0.0000000001
 40
-35.72201702035058
 40
-35.72201702035058
 40
-35.72201702035058
 40
0.0
 40
0.0
 40
0.0
 10
1082.743147314
 20
0.5824968311907992
 30
-0.0000000000000337
 10
1079.796194106
 20
18.19871355869541
 30
-0.0000000000000335
 10
1076.849240898
 20
35.81493028620001
 30
-0.0000000000000333
  0
ARC
  5
131
330
70
100
AcDbEntity
  8
Layer 01
100
AcDbCircle
 10
-533.0
 20
0.0
 30
45.0
 40
533.0
210
0.0
220
1.0
230
0.0
100
AcDbArc
 50
180.0
 51
0.0
  0
ARC
  5
132
330
70
100
AcDbEntity
  8
Layer 01
100
AcDbCircle
 10
34.0
 20
-533.0
 30
533.0
 40
11.0
210
1.0
220
0.0
230
0.0
100
AcDbArc
 50
279.4968663035794
 51
80.5031336964206
  0
ARC
  5
133
330
70
100
AcDbEntity
  8
Layer 01
100
AcDbCircle
 10
-533.0
 20
0.0
 30
45.0
 40
533.0
210
0.0
220
1.0
230
0.0
100
AcDbArc
 50
0.0
 51
180.0
  0
ARC
  5
134
330
70
100
AcDbEntity
  8
Layer 01
100
AcDbCircle
 10
-34.0
 20
533.0
 30
-533.0
 40
11.0
210
-1.0
220
0.0
230
0.0
100
AcDbArc
 50
99.49686630357944
 51
260.5031336964206
  0
LINE
  5
135
330
70
100
AcDbEntity
  8
Layer 01
100
AcDbLine
 10
533.0
 20
0.5824968311503653
 30
516.2568526864763
 11
533.0
 21
35.8149302861724
 31
522.1507591023144
  0
LINE
  5
136
330
70
100
AcDbEntity
  8
Layer 01
100
AcDbLine
 10
533.0
 20
0.5824968311503653
 30
-516.2568526864763
 11
533.0
 21
35.8149302861724
 31
-522.1507591023144
  0
ARC
  5
137
330
70
100
AcDbEntity
  8
Layer 01
100
AcDbCircle
 10
-533.0
 20
0.0
 30
0.5
 40
516.25
210
0.0
220
1.0
230
0.0
100
AcDbArc
 50
180.0
 51
0.0
  0
ARC
  5
138
330
70
100
AcDbEntity
  8
Layer 01
100
AcDbCircle
 10
0.5
 20
-516.75
 30
533.0
 40
0.5
210
1.0
220
0.0
230
0.0
100
AcDbArc
 50
80.50313370072291
 51
180.0
  0
ARC
  5
139
330
70
100
AcDbEntity
  8
Layer 01
100
AcDbCircle
 10
-533.0
 20
0.0
 30
0.5
 40
516.25
210
0.0
220
1.0
230
0.0
100
AcDbArc
 50
0.0
 51
180.0
  0
ARC
  5
13A
330
70
100
AcDbEntity
  8
Layer 01
100
AcDbCircle
 10
-0.5
 20
516.75
 30
-533.0
 40
0.5
210
-1.0
220
0.0
230
0.0
100
AcDbArc
 50
260.5031337007229
 51
0.0
  0
LINE
  5
13B
330
70
100
AcDbEntity
  8
Layer 01
100
AcDbLine
 10
14.99999999999999
 20
0.0
 30
0.0
 11
16.25000000000021
 21
0.0
 31
0.0
  0
LINE
  5
13C
330
70
100
AcDbEntity
  8
Layer 01
100
AcDbLine
 10
1049.75
 20
0.0
 30
0.0
 11
1051.0
 21
0.0
 31
0.0
  0
LINE
  5
13D
330
70
100
AcDbEntity
  8
Layer 01
100
AcDbLine
 10
533.0
 20
0.0
 30
517.9999999999998
 11
533.0
 21
0.0
 31
516.7499999999998
  0
LINE
  5
13E
330
70
100
AcDbEntity
  8
Layer 01
100
AcDbLine
 10
533.0
 20
0.0
 30
-516.7500000000001
 11
533.0
 21
0.0
 31
-517.9999999999999
  0
LINE
  5
13F
330
70
100
AcDbEntity
  8
Layer 01
100
AcDbLine
 10
533.0
 20
0.0000000000150635
 30
-517.9999999999611
 11
533.0
 21
7.659273519234034
 31
-520.982956445858
  0
LINE
  5
140
330
70
100
AcDbEntity
  8
Layer 01
100
AcDbLine
 10
533.0
 20
0.0000000000150635
 30
517.9999999999611
 11
533.0
 21
7.659273519234034
 31
520.982956445858
  0
ARC
  5
141
330
70
100
AcDbEntity
  8
Layer 01
100
AcDbCircle
 10
-533.0
 20
0.0
 30
8.0124641114565
 40
520.9829564459001
210
0.0
220
1.0
230
0.0
100
AcDbArc
 50
0.0
 51
180.0
  0
LINE
  5
142
330
70
100
AcDbEntity
  8
Layer 01
100
AcDbLine
 10
533.0
 20
7.6592735192
 30
520.9829564459001
 11
533.0
 21
8.365654703713
 31
520.9829564459001
  0
ARC
  5
143
330
70
100
AcDbEntity
  8
Layer 01
100
AcDbCircle
 10
-533.0
 20
0.0
 30
8.0124641114565
 40
520.9829564459001
210
0.0
220
1.0
230
0.0
100
AcDbArc
 50
180.0
 51
0.0
  0
LINE
  5
144
330
70
100
AcDbEntity
  8
Layer 01
100
AcDbLine
 10
533.0
 20
7.6592735192
 30
-520.9829564459001
 11
533.0
 21
8.365654703713
 31
-520.9829564459001
  0
LINE
  5
145
330
70
100
AcDbEntity
  8
Layer 01
100
AcDbLine
 10
-12.01704355410994
 20
8.365654703713
 30
0.0
 11
12.01704355410993
 21
8.365654703713
 31
0.0
  0
LINE
  5
146
330
70
100
AcDbEntity
  8
Layer 01
100
AcDbLine
 10
1053.982956446
 20
8.365654703713
 30
0.0
 11
1078.017043554
 21
8.365654703713
 31
0.0
  0
LINE
  5
147
330
70
100
AcDbEntity
  8
Layer 01
100
AcDbLine
 10
532.9999999999451
 20
8.365654703713
 30
545.017043554055
 11
532.9999999999451
 21
8.365654703713
 31
520.9829564459451
  0
LINE
  5
148
330
70
100
AcDbEntity
  8
Layer 01
100
AcDbLine
 10
532.9999999999451
 20
8.365654703713
 30
-520.9829564459451
 11
532.9999999999451
 21
8.365654703713
 31
-545.0170435540548
  0
ARC
  5
149
330
70
100
AcDbEntity
  8
Layer 01
100
AcDbCircle
 10
-533.0
 20
0.0
 30
8.0124641114565
 40
545.0170435540999
210
0.0
220
1.0
230
0.0
100
AcDbArc
 50
180.0
 51
0.0
  0
LINE
  5
14A
330
70
100
AcDbEntity
  8
Layer 01
100
AcDbLine
 10
533.0
 20
7.6592735192
 30
-545.0170435540999
 11
533.0
 21
8.365654703713
 31
-545.0170435540999
  0
ARC
  5
14B
330
70
100
AcDbEntity
  8
Layer 01
100
AcDbCircle
 10
-533.0
 20
0.0
 30
8.0124641114565
 40
545.0170435540999
210
0.0
220
1.0
230
0.0
100
AcDbArc
 50
0.0
 51
180.0
  0
LINE
  5
14C
330
70
100
AcDbEntity
  8
Layer 01
100
AcDbLine
 10
533.0
 20
7.6592735192
 30
545.0170435540999
 11
533.0
 21
8.365654703713
 31
545.0170435540999
  0
LINE
  5
14D
330
70
100
AcDbEntity
  8
Layer 01
100
AcDbLine
 10
533.0
 20
7.659273519234006
 30
545.0170435541419
 11
533.0
 21
0.0000000000147224
 31
548.0000000000389
  0
LINE
  5
14E
330
70
100
AcDbEntity
  8
Layer 01
100
AcDbLine
 10
533.0
 20
7.659273519234006
 30
-545.0170435541419
 11
533.0
 21
0.0000000000147224
 31
-548.0000000000389
  0
LINE
  5
14F
330
70
100
AcDbEntity
  8
Layer 01
100
AcDbLine
 10
-16.25
 20
0.0
 30
0.0
 11
-14.99999999999989
 21
0.0
 31
0.0
  0
LINE
  5
150
330
70
100
AcDbEntity
  8
Layer 01
100
AcDbLine
 10
1081.0
 20
0.0
 30
0.0
 11
1082.25
 21
0.0
 31
0.0
  0
LINE
  5
151
330
70
100
AcDbEntity
  8
Layer 01
100
AcDbLine
 10
533.0
 20
0.0
 30
549.2499999999998
 11
533.0
 21
0.0
 31
548.0
  0
LINE
  5
152
330
70
100
AcDbEntity
  8
Layer 01
100
AcDbLine
 10
533.0
 20
0.0
 30
-548.0
 11
533.0
 21
0.0
 31
-549.2499999999998
  0
ARC
  5
153
330
70
100
AcDbEntity
  8
Layer 01
100
AcDbCircle
 10
0.5
 20
-549.25
 30
533.0
 40
0.5
210
1.0
220
0.0
230
0.0
100
AcDbArc
 50
270.0
 51
279.4968662992874
  0
ARC
  5
154
330
70
100
AcDbEntity
  8
Layer 01
100
AcDbCircle
 10
0.5
 20
-549.25
 30
533.0
 40
0.5
210
1.0
220
0.0
230
0.0
100
AcDbArc
 50
180.0
 51
270.0
  0
ARC
  5
155
330
70
100
AcDbEntity
  8
Layer 01
100
AcDbCircle
 10
-0.5
 20
549.25
 30
-533.0
 40
0.5
210
-1.0
220
0.0
230
0.0
100
AcDbArc
 50
0.0
 51
89.99999999999999
  0
ARC
  5
156
330
70
100
AcDbEntity
  8
Layer 01
100
AcDbCircle
 10
-0.5
 20
549.25
 30
-533.0
 40
0.5
210
-1.0
220
0.0
230
0.0
100
AcDbArc
 50
90.0
 51
99.49686629928794
  0
ARC
  5
157
330
70
100
AcDbEntity
  8
Layer 01
100
AcDbCircle
 10
533.0
 20
0.0
 30
-18.19871355869532
 40
546.7961941055992
210
0.0
220
-1.0
230
0.0
100
AcDbArc
 50
0.0
 51
180.0
  0
LINE
  5
158
330
70
100
AcDbEntity
  8
Layer 01
100
AcDbLine
 10
533.0
 20
35.81493028617253
 30
543.8492408976857
 11
533.0
 21
0.5824968311504541
 31
549.7431473135238
  0
ARC
  5
159
330
70
100
AcDbEntity
  8
Layer 01
100
AcDbCircle
 10
533.0
 20
0.0
 30
-18.19871355869532
 40
546.7961941055992
210
0.0
220
-1.0
230
0.0
100
AcDbArc
 50
180.0
 51
0.0
  0
LINE
  5
15A
330
70
100
AcDbEntity
  8
Layer 01
100
AcDbLine
 10
533.0
 20
35.81493028617253
 30
-543.8492408976857
 11
533.0
 21
0.5824968311504541
 31
-549.7431473135238
  0
ENDBLK
  5
15C
330
70
100
AcDbEntity
  8
0
100
AcDbBlockEnd
  0
BLOCK
  5
307
330
15E
100
AcDbEntity
  8
0
100
AcDbBlockBegin
  2
D8107218_FOND-ROSONE-1100
 70
     0
 10
0.0
 20
0.0
 30
0.0
  3
D8107218_FOND-ROSONE-1100
  1

  0
ARC
  5
15F
330
15E
100
AcDbEntity
  8
Layer 01
100
AcDbCircle
 10
0.0
 20
0.0
 30
-55.0
 40
150.0
210
0.0
220
-1.0
230
0.0
100
AcDbArc
 50
0.000000000000007
 51
180.0
  0
ARC
  5
160
330
15E
100
AcDbEntity
  8
Layer 01
100
AcDbCircle
 10
150.0
 20
44.99999999995742
 30
-0.000000000000023
 40
10.00000000004258
100
AcDbArc
 50
6.264625458867226
 51
90.0
  0
ARC
  5
161
330
15E
100
AcDbEntity
  8
Layer 01
100
AcDbCircle
 10
0.000000000000001
 20
0.0
 30
46.09120616517001
 40
159.9402851622
210
2.221275068502968E-17
220
1.0
230
0.0
100
AcDbArc
 50
0.0
 51
180.0
  0
ARC
  5
162
330
15E
100
AcDbEntity
  8
Layer 01
100
AcDbCircle
 10
-150.0
 20
44.99999999995742
 30
0.0
 40
10.00000000004258
100
AcDbArc
 50
90.0
 51
173.7353745411328
  0
ARC
  5
163
330
15E
100
AcDbEntity
  8
Layer 01
100
AcDbCircle
 10
0.0
 20
0.0
 30
46.09120616517001
 40
159.9402851622
210
-3.523660631092791E-65
220
1.0
230
-4.382328215826506E-49
100
AcDbArc
 50
180.0
 51
0.0
  0
ARC
  5
164
330
15E
100
AcDbEntity
  8
Layer 01
100
AcDbCircle
 10
0.0
 20
0.0
 30
-55.0
 40
150.0
210
0.0
220
-1.0
230
0.0
100
AcDbArc
 50
180.0
 51
0.0
  0
SPLINE
  5
165
330
15E
100
AcDbEntity
  8
Layer 01
100
AcDbSpline
210
0.0
220
0.0
230
1.0
 70
    24
 71
     2
 72
     6
 73
     3
 74
     0
 42
0.000000001
 43
0.0000000001
 40
-46.36809247747914
 40
-46.36809247747914
 40
-46.36809247747914
 40
0.0
 40
0.0
 40
0.0
 10
-165.0
 20
0.0
 30
0.0
 10
-162.4701425811
 20
23.045603082585
 30
0.0
 10
-159.9402851622
 20
46.09120616517001
 30
0.0
  0
ARC
  5
166
330
15E
100
AcDbEntity
  8
Layer 01
100
AcDbCircle
 10
0.0
 20
0.0
 30
0.0
 40
165.0
210
0.0
220
1.0
230
0.0
100
AcDbArc
 50
180.0
 51
0.0
  0
SPLINE
  5
167
330
15E
100
AcDbEntity
  8
Layer 01
100
AcDbSpline
210
0.0
220
0.0
230
1.0
 70
    24
 71
     2
 72
     6
 73
     3
 74
     0
 42
0.000000001
 43
0.0000000001
 40
-46.36809247747914
 40
-46.36809247747914
 40
-46.36809247747914
 40
0.0
 40
0.0
 40
0.0
 10
159.9402851622
 20
46.09120616517001
 30
-0.0000000000000257
 10
162.4701425811
 20
23.045603082585
 30
-0.0000000000000129
 10
165.0
 20
0.0
 30
0.0
  0
ARC
  5
168
330
15E
100
AcDbEntity
  8
Layer 01
100
AcDbCircle
 10
0.0
 20
0.0
 30
0.0
 40
165.0
210
0.0
220
1.0
230
0.0
100
AcDbArc
 50
0.0
 51
180.0
  0
SPLINE
  5
169
330
15E
100
AcDbEntity
  8
Layer 01
100
AcDbSpline
210
0.0
220
0.0
230
1.0
 70
    24
 71
     2
 72
     6
 73
     3
 74
     0
 42
0.000000001
 43
0.0000000001
 40
-1.499999999975804
 40
-1.499999999975804
 40
-1.499999999975804
 40
0.0
 40
0.0
 40
0.0
 10
-165.0
 20
0.0
 30
0.0
 10
-164.25447861285
 20
-0.0818404623874
 30
0.0
 10
-163.5089572257
 20
-0.1636809247748
 30
0.0
  0
SPLINE
  5
16A
330
15E
100
AcDbEntity
  8
Layer 01
100
AcDbSpline
210
0.0
220
0.0
230
1.0
 70
    24
 71
     2
 72
     6
 73
     3
 74
     0
 42
0.000000001
 43
0.0000000001
 40
-1.499999999975804
 40
-1.499999999975804
 40
-1.499999999975804
 40
0.0
 40
0.0
 40
0.0
 10
163.5089572257
 20
-0.1636809247748
 30
0.0
 10
164.25447861285
 20
-0.0818404623874
 30
0.0
 10
165.0
 20
0.0
 30
0.0
  0
ARC
  5
16B
330
15E
100
AcDbEntity
  8
Layer 01
100
AcDbCircle
 10
0.0
 20
0.0
 30
-0.1636809247748
 40
163.5089572257
210
0.0
220
1.0
230
0.0
100
AcDbArc
 50
0.0
 51
180.0
  0
ARC
  5
16C
330
15E
100
AcDbEntity
  8
Layer 01
100
AcDbCircle
 10
0.0
 20
0.0
 30
-0.1636809247748
 40
163.5089572257
210
0.0
220
1.0
230
0.0
100
AcDbArc
 50
180.0
 51
0.0
  0
SPLINE
  5
16D
330
15E
100
AcDbEntity
  8
Layer 01
100
AcDbSpline
210
0.0
220
0.0
230
1.0
 70
    24
 71
     2
 72
     6
 73
     3
 74
     0
 42
0.000000001
 43
0.0000000001
 40
0.0
 40
0.0
 40
0.0
 40
46.36809247748489
 40
46.36809247748489
 40
46.36809247748489
 10
-163.5089572257
 20
-0.1636809247748
 30
0.0
 10
-160.97909980675
 20
22.8819221578076
 30
0.0
 10
-158.4492423878
 20
45.92752524039
 30
0.0
  0
ARC
  5
16E
330
15E
100
AcDbEntity
  8
Layer 01
100
AcDbCircle
 10
-0.0000000000000142
 20
0.0
 30
-45.92752524039
 40
158.4492423878
210
0.0
220
-1.0
230
0.0
100
AcDbArc
 50
180.0
 51
0.0
  0
SPLINE
  5
16F
330
15E
100
AcDbEntity
  8
Layer 01
100
AcDbSpline
210
0.0
220
0.0
230
1.0
 70
    24
 71
     2
 72
     6
 73
     3
 74
     0
 42
0.000000001
 43
0.0000000001
 40
0.0
 40
0.0
 40
0.0
 40
46.36809247748489
 40
46.36809247748489
 40
46.36809247748489
 10
158.4492423878
 20
45.92752524039
 30
-0.0000000000000176
 10
160.97909980675
 20
22.8819221578076
 30
-0.0000000000000088
 10
163.5089572257
 20
-0.1636809247748
 30
0.0
  0
ARC
  5
170
330
15E
100
AcDbEntity
  8
Layer 01
100
AcDbCircle
 10
0.0000000000000142
 20
0.0
 30
-45.92752524039
 40
158.4492423878
210
0.0
220
-1.0
230
0.0
100
AcDbArc
 50
0.000000000000007
 51
180.0
  0
ARC
  5
171
330
15E
100
AcDbEntity
  8
Layer 01
100
AcDbCircle
 10
150.0
 20
45.00000000004243
 30
-0.0000000000000138
 40
8.499999999957573
100
AcDbArc
 50
6.264625458361719
 51
90.0
  0
ARC
  5
172
330
15E
100
AcDbEntity
  8
Layer 01
100
AcDbCircle
 10
0.0
 20
0.0
 30
-53.5
 40
150.0
210
0.0
220
-1.0
230
0.0
100
AcDbArc
 50
0.000000000000007
 51
180.0
  0
ARC
  5
173
330
15E
100
AcDbEntity
  8
Layer 01
100
AcDbCircle
 10
-150.0
 20
45.00000000004244
 30
0.0
 40
8.49999999995756
100
AcDbArc
 50
90.0
 51
173.7353745416384
  0
ARC
  5
174
330
15E
100
AcDbEntity
  8
Layer 01
100
AcDbCircle
 10
0.0
 20
0.0
 30
-53.5
 40
150.0
210
0.0
220
-1.0
230
0.0
100
AcDbArc
 50
180.0
 51
0.0
  0
ARC
  5
175
330
15E
100
AcDbEntity
  8
Layer 01
100
AcDbCircle
 10
145.0
 20
0.0
 30
55.0
 40
1.3
210
0.0
220
1.0
230
0.0
100
AcDbArc
 50
0.000000000000007
 51
180.0
  0
SPLINE
  5
176
330
15E
100
AcDbEntity
  8
Layer 01
100
AcDbSpline
210
0.0
220
0.0
230
1.0
 70
    24
 71
     2
 72
     6
 73
     3
 74
     0
 42
0.000000001
 43
0.0000000001
 40
0.0
 40
0.0
 40
0.0
 40
1.5
 40
1.5
 40
1.5
 10
-146.3
 20
55.0
 30
0.0
 10
-146.3
 20
54.25
 30
0.0
 10
-146.3
 20
53.5
 30
0.0
  0
ARC
  5
177
330
15E
100
AcDbEntity
  8
Layer 01
100
AcDbCircle
 10
145.0
 20
0.0
 30
53.5
 40
1.3
210
0.0
220
1.0
230
0.0
100
AcDbArc
 50
0.000000000000007
 51
180.0
  0
SPLINE
  5
178
330
15E
100
AcDbEntity
  8
Layer 01
100
AcDbSpline
210
0.0
220
0.0
230
1.0
 70
    24
 71
     2
 72
     6
 73
     3
 74
     0
 42
0.000000001
 43
0.0000000001
 40
0.0
 40
0.0
 40
0.0
 40
1.5
 40
1.5
 40
1.5
 10
-143.7
 20
53.5
 30
0.0
 10
-143.7
 20
54.25
 30
0.0
 10
-143.7
 20
55.0
 30
0.0
  0
ARC
  5
179
330
15E
100
AcDbEntity
  8
Layer 01
100
AcDbCircle
 10
145.0
 20
0.0
 30
55.0
 40
1.3
210
0.0
220
1.0
230
0.0
100
AcDbArc
 50
180.0
 51
0.0
  0
ARC
  5
17A
330
15E
100
AcDbEntity
  8
Layer 01
100
AcDbCircle
 10
145.0
 20
0.0
 30
53.5
 40
1.3
210
0.0
220
1.0
230
0.0
100
AcDbArc
 50
180.0
 51
0.0
  0
ARC
  5
17B
330
15E
100
AcDbEntity
  8
Layer 01
100
AcDbCircle
 10
144.2056748284
 20
-15.15662717381
 30
55.0
 40
1.300000000000011
210
0.0
220
1.0
230
0.0
100
AcDbArc
 50
0.0000000000000783
 51
180.0
  0
SPLINE
  5
17C
330
15E
100
AcDbEntity
  8
Layer 01
100
AcDbSpline
210
0.0
220
0.0
230
1.0
 70
    24
 71
     2
 72
     6
 73
     3
 74
     0
 42
0.000000001
 43
0.0000000001
 40
0.0
 40
0.0
 40
0.0
 40
1.5
 40
1.5
 40
1.5
 10
-145.5056748284
 20
55.0
 30
-15.15662717381
 10
-145.5056748284
 20
54.25
 30
-15.15662717381
 10
-145.5056748284
 20
53.5
 30
-15.15662717381
  0
ARC
  5
17D
330
15E
100
AcDbEntity
  8
Layer 01
100
AcDbCircle
 10
144.2056748284
 20
-15.15662717381
 30
53.5
 40
1.300000000000011
210
0.0
220
1.0
230
0.0
100
AcDbArc
 50
0.0000000000000783
 51
180.0
  0
SPLINE
  5
17E
330
15E
100
AcDbEntity
  8
Layer 01
100
AcDbSpline
210
0.0
220
0.0
230
1.0
 70
    24
 71
     2
 72
     6
 73
     3
 74
     0
 42
0.000000001
 43
0.0000000001
 40
0.0
 40
0.0
 40
0.0
 40
1.5
 40
1.5
 40
1.5
 10
-142.9056748284
 20
53.5
 30
-15.15662717381
 10
-142.9056748284
 20
54.25
 30
-15.15662717381
 10
-142.9056748284
 20
55.0
 30
-15.15662717381
  0
ARC
  5
17F
330
15E
100
AcDbEntity
  8
Layer 01
100
AcDbCircle
 10
144.2056748284
 20
-15.15662717381
 30
55.0
 40
1.300000000000011
210
0.0
220
1.0
230
0.0
100
AcDbArc
 50
179.9999999999999
 51
0.0
  0
ARC
  5
180
330
15E
100
AcDbEntity
  8
Layer 01
100
AcDbCircle
 10
144.2056748284
 20
-15.15662717381
 30
53.5
 40
1.300000000000011
210
0.0
220
1.0
230
0.0
100
AcDbArc
 50
179.9999999999999
 51
0.0
  0
ARC
  5
181
330
15E
100
AcDbEntity
  8
Layer 01
100
AcDbCircle
 10
-72.50000000002164
 20
-125.5736835487375
 30
55.0
 40
1.300000000026211
210
0.0
220
1.0
230
0.0
100
AcDbArc
 50
240.0000000017682
 51
59.99999999956376
  0
SPLINE
  5
182
330
15E
100
AcDbEntity
  8
Layer 01
100
AcDbSpline
210
0.0
220
0.0
230
1.0
 70
    24
 71
     2
 72
     6
 73
     3
 74
     0
 42
0.000000001
 43
0.0000000001
 40
0.0
 40
0.0
 40
0.0
 40
1.5
 40
1.5
 40
1.5
 10
73.15
 20
55.0
 30
-126.6995165737
 10
73.15
 20
54.25
 30
-126.6995165737
 10
73.15
 20
53.5
 30
-126.6995165737
  0
ARC
  5
183
330
15E
100
AcDbEntity
  8
Layer 01
100
AcDbCircle
 10
-72.50000000002164
 20
-125.5736835487375
 30
53.5
 40
1.300000000026211
210
0.0
220
1.0
230
0.0
100
AcDbArc
 50
240.0000000017682
 51
59.99999999956376
  0
SPLINE
  5
184
330
15E
100
AcDbEntity
  8
Layer 01
100
AcDbSpline
210
0.0
220
0.0
230
1.0
 70
    24
 71
     2
 72
     6
 73
     3
 74
     0
 42
0.000000001
 43
0.0000000001
 40
0.0
 40
0.0
 40
0.0
 40
1.5
 40
1.5
 40
1.5
 10
71.85
 20
53.5
 30
-124.4478505238
 10
71.85
 20
54.25
 30
-124.4478505238
 10
71.85
 20
55.0
 30
-124.4478505238
  0
ARC
  5
185
330
15E
100
AcDbEntity
  8
Layer 01
100
AcDbCircle
 10
-72.50000000002164
 20
-125.5736835487375
 30
55.0
 40
1.300000000026189
210
0.0
220
1.0
230
0.0
100
AcDbArc
 50
59.99999999956454
 51
240.0000000017676
  0
ARC
  5
186
330
15E
100
AcDbEntity
  8
Layer 01
100
AcDbCircle
 10
-72.50000000002164
 20
-125.5736835487375
 30
53.5
 40
1.300000000026189
210
0.0
220
1.0
230
0.0
100
AcDbArc
 50
59.99999999956454
 51
240.0000000017676
  0
ARC
  5
187
330
15E
100
AcDbEntity
  8
Layer 01
100
AcDbCircle
 10
-85.22886158238835
 20
-117.3074641843625
 30
55.0
 40
1.300000000026209
210
0.0
220
1.0
230
0.0
100
AcDbArc
 50
239.9999999995651
 51
60.00000000176735
  0
SPLINE
  5
188
330
15E
100
AcDbEntity
  8
Layer 01
100
AcDbSpline
210
0.0
220
0.0
230
1.0
 70
    24
 71
     2
 72
     6
 73
     3
 74
     0
 42
0.000000001
 43
0.0000000001
 40
0.0
 40
0.0
 40
0.0
 40
1.5
 40
1.5
 40
1.5
 10
85.87886158241
 20
55.0
 30
-118.4332972093
 10
85.87886158241
 20
54.25
 30
-118.4332972093
 10
85.87886158241
 20
53.5
 30
-118.4332972093
  0
ARC
  5
189
330
15E
100
AcDbEntity
  8
Layer 01
100
AcDbCircle
 10
-85.22886158238835
 20
-117.3074641843625
 30
53.5
 40
1.300000000026209
210
0.0
220
1.0
230
0.0
100
AcDbArc
 50
239.9999999995651
 51
60.00000000176735
  0
SPLINE
  5
18A
330
15E
100
AcDbEntity
  8
Layer 01
100
AcDbSpline
210
0.0
220
0.0
230
1.0
 70
    24
 71
     2
 72
     6
 73
     3
 74
     0
 42
0.000000001
 43
0.0000000001
 40
0.0
 40
0.0
 40
0.0
 40
1.5
 40
1.5
 40
1.5
 10
84.57886158240998
 20
53.5
 30
-116.1816311594
 10
84.57886158240998
 20
54.25
 30
-116.1816311594
 10
84.57886158240998
 20
55.0
 30
-116.1816311594
  0
ARC
  5
18B
330
15E
100
AcDbEntity
  8
Layer 01
100
AcDbCircle
 10
-85.22886158238835
 20
-117.3074641843625
 30
55.0
 40
1.300000000026216
210
0.0
220
1.0
230
0.0
100
AcDbArc
 50
60.00000000176767
 51
239.9999999995646
  0
ARC
  5
18C
330
15E
100
AcDbEntity
  8
Layer 01
100
AcDbCircle
 10
-85.22886158238835
 20
-117.3074641843625
 30
53.5
 40
1.300000000026216
210
0.0
220
1.0
230
0.0
100
AcDbArc
 50
60.00000000176767
 51
239.9999999995646
  0
ARC
  5
18D
330
15E
100
AcDbEntity
  8
Layer 01
100
AcDbCircle
 10
-72.50000000002164
 20
125.5736835487375
 30
55.0
 40
1.300000000026209
210
0.0
220
1.0
230
0.0
100
AcDbArc
 50
119.9999999982332
 51
300.0000000004349
  0
SPLINE
  5
18E
330
15E
100
AcDbEntity
  8
Layer 01
100
AcDbSpline
210
0.0
220
0.0
230
1.0
 70
    24
 71
     2
 72
     6
 73
     3
 74
     0
 42
0.000000001
 43
0.0000000001
 40
0.0
 40
0.0
 40
0.0
 40
1.5
 40
1.5
 40
1.5
 10
73.15
 20
55.0
 30
126.6995165737
 10
73.15
 20
54.25
 30
126.6995165737
 10
73.15
 20
53.5
 30
126.6995165737
  0
ARC
  5
18F
330
15E
100
AcDbEntity
  8
Layer 01
100
AcDbCircle
 10
-72.50000000002164
 20
125.5736835487375
 30
53.5
 40
1.300000000026209
210
0.0
220
1.0
230
0.0
100
AcDbArc
 50
119.9999999982332
 51
300.0000000004349
  0
ARC
  5
190
330
15E
100
AcDbEntity
  8
Layer 01
100
AcDbCircle
 10
-72.50000000002166
 20
125.5736835487375
 30
55.0
 40
1.300000000026202
210
0.0
220
1.0
230
0.0
100
AcDbArc
 50
300.0000000004356
 51
119.9999999982321
  0
SPLINE
  5
191
330
15E
100
AcDbEntity
  8
Layer 01
100
AcDbSpline
210
0.0
220
0.0
230
1.0
 70
    24
 71
     2
 72
     6
 73
     3
 74
     0
 42
0.000000001
 43
0.0000000001
 40
0.0
 40
0.0
 40
0.0
 40
1.5
 40
1.5
 40
1.5
 10
71.85
 20
55.0
 30
124.4478505238
 10
71.85
 20
54.25
 30
124.4478505238
 10
71.85
 20
53.5
 30
124.4478505238
  0
ARC
  5
192
330
15E
100
AcDbEntity
  8
Layer 01
100
AcDbCircle
 10
-72.50000000002166
 20
125.5736835487375
 30
53.5
 40
1.300000000026202
210
0.0
220
1.0
230
0.0
100
AcDbArc
 50
300.0000000004356
 51
119.9999999982321
  0
ARC
  5
193
330
15E
100
AcDbEntity
  8
Layer 01
100
AcDbCircle
 10
-58.97681324598998
 20
132.4640913581999
 30
55.0
 40
1.299999999982885
210
0.0
220
1.0
230
0.0
100
AcDbArc
 50
120.0000000004355
 51
300.0000000004358
  0
ARC
  5
194
330
15E
100
AcDbEntity
  8
Layer 01
100
AcDbCircle
 10
-58.97681324598998
 20
132.4640913581999
 30
53.5
 40
1.299999999982885
210
0.0
220
1.0
230
0.0
100
AcDbArc
 50
120.0000000004355
 51
300.0000000004358
  0
SPLINE
  5
195
330
15E
100
AcDbEntity
  8
Layer 01
100
AcDbSpline
210
0.0
220
0.0
230
1.0
 70
    24
 71
     2
 72
     6
 73
     3
 74
     0
 42
0.000000001
 43
0.0000000001
 40
0.0
 40
0.0
 40
0.0
 40
1.5
 40
1.5
 40
1.5
 10
58.32681324599
 20
53.5
 30
131.3382583333
 10
58.32681324599
 20
54.25
 30
131.3382583333
 10
58.32681324599
 20
55.0
 30
131.3382583333
  0
ARC
  5
196
330
15E
100
AcDbEntity
  8
Layer 01
100
AcDbCircle
 10
-58.97681324598998
 20
132.4640913581999
 30
55.0
 40
1.299999999982902
210
0.0
220
1.0
230
0.0
100
AcDbArc
 50
300.0000000004363
 51
120.0000000004346
  0
ARC
  5
197
330
15E
100
AcDbEntity
  8
Layer 01
100
AcDbCircle
 10
-58.97681324598998
 20
132.4640913581999
 30
53.5
 40
1.299999999982902
210
0.0
220
1.0
230
0.0
100
AcDbArc
 50
300.0000000004363
 51
120.0000000004346
  0
SPLINE
  5
198
330
15E
100
AcDbEntity
  8
Layer 01
100
AcDbSpline
210
0.0
220
0.0
230
1.0
 70
    24
 71
     2
 72
     6
 73
     3
 74
     0
 42
0.000000001
 43
0.0000000001
 40
0.0
 40
0.0
 40
0.0
 40
1.5
 40
1.5
 40
1.5
 10
59.62681324598999
 20
53.5
 30
133.5899243831
 10
59.62681324598999
 20
54.25
 30
133.5899243831
 10
59.62681324598999
 20
55.0
 30
133.5899243831
  0
ARC
  5
199
330
15E
100
AcDbEntity
  8
Layer 01
100
AcDbCircle
 10
2.0
 20
-60.0
 30
55.0
 40
1.3
210
0.0
220
1.0
230
0.0
100
AcDbArc
 50
0.0
 51
180.0
  0
SPLINE
  5
19A
330
15E
100
AcDbEntity
  8
Layer 01
100
AcDbSpline
210
0.0
220
0.0
230
1.0
 70
    24
 71
     2
 72
     6
 73
     3
 74
     0
 42
0.000000001
 43
0.0000000001
 40
0.0
 40
0.0
 40
0.0
 40
1.5
 40
1.5
 40
1.5
 10
-3.299999999999999
 20
55.0
 30
-60.0
 10
-3.299999999999999
 20
54.25
 30
-60.0
 10
-3.299999999999999
 20
53.5
 30
-60.0
  0
ARC
  5
19B
330
15E
100
AcDbEntity
  8
Layer 01
100
AcDbCircle
 10
2.0
 20
-60.0
 30
53.5
 40
1.3
210
0.0
220
1.0
230
0.0
100
AcDbArc
 50
0.0
 51
180.0
  0
SPLINE
  5
19C
330
15E
100
AcDbEntity
  8
Layer 01
100
AcDbSpline
210
0.0
220
0.0
230
1.0
 70
    24
 71
     2
 72
     6
 73
     3
 74
     0
 42
0.000000001
 43
0.0000000001
 40
0.0
 40
0.0
 40
0.0
 40
1.5
 40
1.5
 40
1.5
 10
-0.6999999999999998
 20
53.5
 30
-60.0
 10
-0.6999999999999998
 20
54.25
 30
-60.0
 10
-0.6999999999999998
 20
55.0
 30
-60.0
  0
ARC
  5
19D
330
15E
100
AcDbEntity
  8
Layer 01
100
AcDbCircle
 10
2.0
 20
-60.0
 30
55.0
 40
1.3
210
0.0
220
1.0
230
0.0
100
AcDbArc
 50
180.0
 51
0.0
  0
ARC
  5
19E
330
15E
100
AcDbEntity
  8
Layer 01
100
AcDbCircle
 10
2.0
 20
-60.0
 30
53.5
 40
1.3
210
0.0
220
1.0
230
0.0
100
AcDbArc
 50
180.0
 51
0.0
  0
ARC
  5
19F
330
15E
100
AcDbEntity
  8
Layer 01
100
AcDbCircle
 10
-28.0
 20
-60.0
 30
55.0
 40
1.300000000000001
210
0.0
220
1.0
230
0.0
100
AcDbArc
 50
0.0
 51
180.0
  0
SPLINE
  5
1A0
330
15E
100
AcDbEntity
  8
Layer 01
100
AcDbSpline
210
0.0
220
0.0
230
1.0
 70
    24
 71
     2
 72
     6
 73
     3
 74
     0
 42
0.000000001
 43
0.0000000001
 40
0.0
 40
0.0
 40
0.0
 40
1.5
 40
1.5
 40
1.5
 10
26.7
 20
55.0
 30
-60.0
 10
26.7
 20
54.25
 30
-60.0
 10
26.7
 20
53.5
 30
-60.0
  0
ARC
  5
1A1
330
15E
100
AcDbEntity
  8
Layer 01
100
AcDbCircle
 10
-28.0
 20
-60.0
 30
53.5
 40
1.300000000000001
210
0.0
220
1.0
230
0.0
100
AcDbArc
 50
0.0
 51
180.0
  0
SPLINE
  5
1A2
330
15E
100
AcDbEntity
  8
Layer 01
100
AcDbSpline
210
0.0
220
0.0
230
1.0
 70
    24
 71
     2
 72
     6
 73
     3
 74
     0
 42
0.000000001
 43
0.0000000001
 40
0.0
 40
0.0
 40
0.0
 40
1.5
 40
1.5
 40
1.5
 10
29.3
 20
53.5
 30
-60.0
 10
29.3
 20
54.25
 30
-60.0
 10
29.3
 20
55.0
 30
-60.0
  0
ARC
  5
1A3
330
15E
100
AcDbEntity
  8
Layer 01
100
AcDbCircle
 10
-28.0
 20
-60.0
 30
55.0
 40
1.3
210
0.0
220
1.0
230
0.0
100
AcDbArc
 50
180.0
 51
0.0
  0
ARC
  5
1A4
330
15E
100
AcDbEntity
  8
Layer 01
100
AcDbCircle
 10
-28.0
 20
-60.0
 30
53.5
 40
1.3
210
0.0
220
1.0
230
0.0
100
AcDbArc
 50
180.0
 51
0.0
  0
ARC
  5
1A5
330
15E
100
AcDbEntity
  8
Layer 01
100
AcDbCircle
 10
2.0
 20
60.0
 30
55.0
 40
1.3
210
0.0
220
1.0
230
0.0
100
AcDbArc
 50
0.0
 51
180.0
  0
SPLINE
  5
1A6
330
15E
100
AcDbEntity
  8
Layer 01
100
AcDbSpline
210
0.0
220
0.0
230
1.0
 70
    24
 71
     2
 72
     6
 73
     3
 74
     0
 42
0.000000001
 43
0.0000000001
 40
0.0
 40
0.0
 40
0.0
 40
1.5
 40
1.5
 40
1.5
 10
-3.299999999999999
 20
55.0
 30
60.0
 10
-3.299999999999999
 20
54.25
 30
60.0
 10
-3.299999999999999
 20
53.5
 30
60.0
  0
ARC
  5
1A7
330
15E
100
AcDbEntity
  8
Layer 01
100
AcDbCircle
 10
2.0
 20
60.0
 30
53.5
 40
1.3
210
0.0
220
1.0
230
0.0
100
AcDbArc
 50
0.0
 51
180.0
  0
SPLINE
  5
1A8
330
15E
100
AcDbEntity
  8
Layer 01
100
AcDbSpline
210
0.0
220
0.0
230
1.0
 70
    24
 71
     2
 72
     6
 73
     3
 74
     0
 42
0.000000001
 43
0.0000000001
 40
0.0
 40
0.0
 40
0.0
 40
1.5
 40
1.5
 40
1.5
 10
-0.6999999999999998
 20
53.5
 30
60.0
 10
-0.6999999999999998
 20
54.25
 30
60.0
 10
-0.6999999999999998
 20
55.0
 30
60.0
  0
ARC
  5
1A9
330
15E
100
AcDbEntity
  8
Layer 01
100
AcDbCircle
 10
2.0
 20
60.0
 30
55.0
 40
1.3
210
0.0
220
1.0
230
0.0
100
AcDbArc
 50
180.0
 51
0.0
  0
ARC
  5
1AA
330
15E
100
AcDbEntity
  8
Layer 01
100
AcDbCircle
 10
2.0
 20
60.0
 30
53.5
 40
1.3
210
0.0
220
1.0
230
0.0
100
AcDbArc
 50
180.0
 51
0.0
  0
ARC
  5
1AB
330
15E
100
AcDbEntity
  8
Layer 01
100
AcDbCircle
 10
8.0
 20
100.0
 30
55.0
 40
1.3
210
0.0
220
1.0
230
0.0
100
AcDbArc
 50
0.0
 51
180.0
  0
SPLINE
  5
1AC
330
15E
100
AcDbEntity
  8
Layer 01
100
AcDbSpline
210
0.0
220
0.0
230
1.0
 70
    24
 71
     2
 72
     6
 73
     3
 74
     0
 42
0.000000001
 43
0.0000000001
 40
0.0
 40
0.0
 40
0.0
 40
1.5
 40
1.5
 40
1.5
 10
-9.3
 20
55.0
 30
100.0
 10
-9.3
 20
54.25
 30
100.0
 10
-9.3
 20
53.5
 30
100.0
  0
ARC
  5
1AD
330
15E
100
AcDbEntity
  8
Layer 01
100
AcDbCircle
 10
8.0
 20
100.0
 30
53.5
 40
1.3
210
0.0
220
1.0
230
0.0
100
AcDbArc
 50
0.0
 51
180.0
  0
SPLINE
  5
1AE
330
15E
100
AcDbEntity
  8
Layer 01
100
AcDbSpline
210
0.0
220
0.0
230
1.0
 70
    24
 71
     2
 72
     6
 73
     3
 74
     0
 42
0.000000001
 43
0.0000000001
 40
0.0
 40
0.0
 40
0.0
 40
1.5
 40
1.5
 40
1.5
 10
-6.7
 20
53.5
 30
100.0
 10
-6.7
 20
54.25
 30
100.0
 10
-6.7
 20
55.0
 30
100.0
  0
ARC
  5
1AF
330
15E
100
AcDbEntity
  8
Layer 01
100
AcDbCircle
 10
8.0
 20
100.0
 30
55.0
 40
1.3
210
0.0
220
1.0
230
0.0
100
AcDbArc
 50
180.0
 51
0.0
  0
ARC
  5
1B0
330
15E
100
AcDbEntity
  8
Layer 01
100
AcDbCircle
 10
8.0
 20
100.0
 30
53.5
 40
1.3
210
0.0
220
1.0
230
0.0
100
AcDbArc
 50
180.0
 51
0.0
  0
ARC
  5
1B1
330
15E
100
AcDbEntity
  8
Layer 01
100
AcDbCircle
 10
-8.0
 20
100.0
 30
55.0
 40
1.3
210
0.0
220
1.0
230
0.0
100
AcDbArc
 50
0.0
 51
180.0
  0
SPLINE
  5
1B2
330
15E
100
AcDbEntity
  8
Layer 01
100
AcDbSpline
210
0.0
220
0.0
230
1.0
 70
    24
 71
     2
 72
     6
 73
     3
 74
     0
 42
0.000000001
 43
0.0000000001
 40
0.0
 40
0.0
 40
0.0
 40
1.5
 40
1.5
 40
1.5
 10
6.7
 20
55.0
 30
100.0
 10
6.7
 20
54.25
 30
100.0
 10
6.7
 20
53.5
 30
100.0
  0
ARC
  5
1B3
330
15E
100
AcDbEntity
  8
Layer 01
100
AcDbCircle
 10
-8.0
 20
100.0
 30
53.5
 40
1.3
210
0.0
220
1.0
230
0.0
100
AcDbArc
 50
0.0
 51
180.0
  0
SPLINE
  5
1B4
330
15E
100
AcDbEntity
  8
Layer 01
100
AcDbSpline
210
0.0
220
0.0
230
1.0
 70
    24
 71
     2
 72
     6
 73
     3
 74
     0
 42
0.000000001
 43
0.0000000001
 40
0.0
 40
0.0
 40
0.0
 40
1.5
 40
1.5
 40
1.5
 10
9.3
 20
53.5
 30
100.0
 10
9.3
 20
54.25
 30
100.0
 10
9.3
 20
55.0
 30
100.0
  0
ARC
  5
1B5
330
15E
100
AcDbEntity
  8
Layer 01
100
AcDbCircle
 10
-8.0
 20
100.0
 30
55.0
 40
1.3
210
0.0
220
1.0
230
0.0
100
AcDbArc
 50
180.0
 51
0.0
  0
ARC
  5
1B6
330
15E
100
AcDbEntity
  8
Layer 01
100
AcDbCircle
 10
-8.0
 20
100.0
 30
53.5
 40
1.3
210
0.0
220
1.0
230
0.0
100
AcDbArc
 50
180.0
 51
0.0
  0
ARC
  5
1B7
330
15E
100
AcDbEntity
  8
Layer 01
100
AcDbCircle
 10
17.5
 20
135.0
 30
55.0
 40
1.3
210
0.0
220
1.0
230
0.0
100
AcDbArc
 50
0.0
 51
180.0
  0
SPLINE
  5
1B8
330
15E
100
AcDbEntity
  8
Layer 01
100
AcDbSpline
210
0.0
220
0.0
230
1.0
 70
    24
 71
     2
 72
     6
 73
     3
 74
     0
 42
0.000000001
 43
0.0000000001
 40
0.0
 40
0.0
 40
0.0
 40
1.5
 40
1.5
 40
1.5
 10
-18.8
 20
55.0
 30
135.0
 10
-18.8
 20
54.25
 30
135.0
 10
-18.8
 20
53.5
 30
135.0
  0
ARC
  5
1B9
330
15E
100
AcDbEntity
  8
Layer 01
100
AcDbCircle
 10
17.5
 20
135.0
 30
53.5
 40
1.3
210
0.0
220
1.0
230
0.0
100
AcDbArc
 50
0.0
 51
180.0
  0
SPLINE
  5
1BA
330
15E
100
AcDbEntity
  8
Layer 01
100
AcDbSpline
210
0.0
220
0.0
230
1.0
 70
    24
 71
     2
 72
     6
 73
     3
 74
     0
 42
0.000000001
 43
0.0000000001
 40
0.0
 40
0.0
 40
0.0
 40
1.5
 40
1.5
 40
1.5
 10
-16.2
 20
53.5
 30
135.0
 10
-16.2
 20
54.25
 30
135.0
 10
-16.2
 20
55.0
 30
135.0
  0
ARC
  5
1BB
330
15E
100
AcDbEntity
  8
Layer 01
100
AcDbCircle
 10
17.5
 20
135.0
 30
55.0
 40
1.300000000000001
210
0.0
220
1.0
230
0.0
100
AcDbArc
 50
180.0
 51
0.0
  0
ARC
  5
1BC
330
15E
100
AcDbEntity
  8
Layer 01
100
AcDbCircle
 10
17.5
 20
135.0
 30
53.5
 40
1.300000000000001
210
0.0
220
1.0
230
0.0
100
AcDbArc
 50
180.0
 51
0.0
  0
ARC
  5
1BD
330
15E
100
AcDbEntity
  8
Layer 01
100
AcDbCircle
 10
51.5
 20
-136.0
 30
55.0
 40
1.299999999999997
210
0.0
220
1.0
230
0.0
100
AcDbArc
 50
0.0
 51
180.0
  0
SPLINE
  5
1BE
330
15E
100
AcDbEntity
  8
Layer 01
100
AcDbSpline
210
0.0
220
0.0
230
1.0
 70
    24
 71
     2
 72
     6
 73
     3
 74
     0
 42
0.000000001
 43
0.0000000001
 40
0.0
 40
0.0
 40
0.0
 40
1.5
 40
1.5
 40
1.5
 10
-52.79999999999999
 20
55.0
 30
-136.0
 10
-52.79999999999999
 20
54.25
 30
-136.0
 10
-52.79999999999999
 20
53.5
 30
-136.0
  0
ARC
  5
1BF
330
15E
100
AcDbEntity
  8
Layer 01
100
AcDbCircle
 10
51.5
 20
-136.0
 30
53.5
 40
1.299999999999997
210
0.0
220
1.0
230
0.0
100
AcDbArc
 50
0.0
 51
180.0
  0
SPLINE
  5
1C0
330
15E
100
AcDbEntity
  8
Layer 01
100
AcDbSpline
210
0.0
220
0.0
230
1.0
 70
    24
 71
     2
 72
     6
 73
     3
 74
     0
 42
0.000000001
 43
0.0000000001
 40
0.0
 40
0.0
 40
0.0
 40
1.5
 40
1.5
 40
1.5
 10
-50.2
 20
53.5
 30
-136.0
 10
-50.2
 20
54.25
 30
-136.0
 10
-50.2
 20
55.0
 30
-136.0
  0
ARC
  5
1C1
330
15E
100
AcDbEntity
  8
Layer 01
100
AcDbCircle
 10
51.5
 20
-136.0
 30
55.0
 40
1.3
210
0.0
220
1.0
230
0.0
100
AcDbArc
 50
180.0
 51
0.0
  0
ARC
  5
1C2
330
15E
100
AcDbEntity
  8
Layer 01
100
AcDbCircle
 10
51.5
 20
-136.0
 30
53.5
 40
1.3
210
0.0
220
1.0
230
0.0
100
AcDbArc
 50
180.0
 51
0.0
  0
ARC
  5
1C3
330
15E
100
AcDbEntity
  8
Layer 01
100
AcDbCircle
 10
7.0
 20
-82.0
 30
55.0
 40
1.3
210
0.0
220
1.0
230
0.0
100
AcDbArc
 50
0.0
 51
180.0
  0
SPLINE
  5
1C4
330
15E
100
AcDbEntity
  8
Layer 01
100
AcDbSpline
210
0.0
220
0.0
230
1.0
 70
    24
 71
     2
 72
     6
 73
     3
 74
     0
 42
0.000000001
 43
0.0000000001
 40
0.0
 40
0.0
 40
0.0
 40
1.5
 40
1.5
 40
1.5
 10
-8.3
 20
55.0
 30
-82.0
 10
-8.3
 20
54.25
 30
-82.0
 10
-8.3
 20
53.5
 30
-82.0
  0
ARC
  5
1C5
330
15E
100
AcDbEntity
  8
Layer 01
100
AcDbCircle
 10
7.0
 20
-82.0
 30
53.5
 40
1.3
210
0.0
220
1.0
230
0.0
100
AcDbArc
 50
0.0
 51
180.0
  0
SPLINE
  5
1C6
330
15E
100
AcDbEntity
  8
Layer 01
100
AcDbSpline
210
0.0
220
0.0
230
1.0
 70
    24
 71
     2
 72
     6
 73
     3
 74
     0
 42
0.000000001
 43
0.0000000001
 40
0.0
 40
0.0
 40
0.0
 40
1.5
 40
1.5
 40
1.5
 10
-5.7
 20
53.5
 30
-82.0
 10
-5.7
 20
54.25
 30
-82.0
 10
-5.7
 20
55.0
 30
-82.0
  0
ARC
  5
1C7
330
15E
100
AcDbEntity
  8
Layer 01
100
AcDbCircle
 10
7.0
 20
-82.0
 30
55.0
 40
1.3
210
0.0
220
1.0
230
0.0
100
AcDbArc
 50
180.0
 51
0.0
  0
ARC
  5
1C8
330
15E
100
AcDbEntity
  8
Layer 01
100
AcDbCircle
 10
7.0
 20
-82.0
 30
53.5
 40
1.3
210
0.0
220
1.0
230
0.0
100
AcDbArc
 50
180.0
 51
0.0
  0
ARC
  5
1C9
330
15E
100
AcDbEntity
  8
Layer 01
100
AcDbCircle
 10
17.5
 20
121.0
 30
55.0
 40
1.3
210
0.0
220
1.0
230
0.0
100
AcDbArc
 50
0.0
 51
180.0
  0
SPLINE
  5
1CA
330
15E
100
AcDbEntity
  8
Layer 01
100
AcDbSpline
210
0.0
220
0.0
230
1.0
 70
    24
 71
     2
 72
     6
 73
     3
 74
     0
 42
0.000000001
 43
0.0000000001
 40
0.0
 40
0.0
 40
0.0
 40
1.5
 40
1.5
 40
1.5
 10
-18.8
 20
55.0
 30
121.0
 10
-18.8
 20
54.25
 30
121.0
 10
-18.8
 20
53.5
 30
121.0
  0
ARC
  5
1CB
330
15E
100
AcDbEntity
  8
Layer 01
100
AcDbCircle
 10
17.5
 20
121.0
 30
53.5
 40
1.3
210
0.0
220
1.0
230
0.0
100
AcDbArc
 50
0.0
 51
180.0
  0
SPLINE
  5
1CC
330
15E
100
AcDbEntity
  8
Layer 01
100
AcDbSpline
210
0.0
220
0.0
230
1.0
 70
    24
 71
     2
 72
     6
 73
     3
 74
     0
 42
0.000000001
 43
0.0000000001
 40
0.0
 40
0.0
 40
0.0
 40
1.5
 40
1.5
 40
1.5
 10
-16.2
 20
53.5
 30
121.0
 10
-16.2
 20
54.25
 30
121.0
 10
-16.2
 20
55.0
 30
121.0
  0
ARC
  5
1CD
330
15E
100
AcDbEntity
  8
Layer 01
100
AcDbCircle
 10
17.5
 20
121.0
 30
55.0
 40
1.300000000000001
210
0.0
220
1.0
230
0.0
100
AcDbArc
 50
180.0
 51
0.0
  0
ARC
  5
1CE
330
15E
100
AcDbEntity
  8
Layer 01
100
AcDbCircle
 10
17.5
 20
121.0
 30
53.5
 40
1.300000000000001
210
0.0
220
1.0
230
0.0
100
AcDbArc
 50
180.0
 51
0.0
  0
ARC
  5
1CF
330
15E
100
AcDbEntity
  8
Layer 01
100
AcDbCircle
 10
51.5
 20
-120.0
 30
55.0
 40
1.299999999999997
210
0.0
220
1.0
230
0.0
100
AcDbArc
 50
0.0
 51
180.0
  0
SPLINE
  5
1D0
330
15E
100
AcDbEntity
  8
Layer 01
100
AcDbSpline
210
0.0
220
0.0
230
1.0
 70
    24
 71
     2
 72
     6
 73
     3
 74
     0
 42
0.000000001
 43
0.0000000001
 40
0.0
 40
0.0
 40
0.0
 40
1.5
 40
1.5
 40
1.5
 10
-52.79999999999999
 20
55.0
 30
-120.0
 10
-52.79999999999999
 20
54.25
 30
-120.0
 10
-52.79999999999999
 20
53.5
 30
-120.0
  0
ARC
  5
1D1
330
15E
100
AcDbEntity
  8
Layer 01
100
AcDbCircle
 10
51.5
 20
-120.0
 30
53.5
 40
1.299999999999997
210
0.0
220
1.0
230
0.0
100
AcDbArc
 50
0.0
 51
180.0
  0
SPLINE
  5
1D2
330
15E
100
AcDbEntity
  8
Layer 01
100
AcDbSpline
210
0.0
220
0.0
230
1.0
 70
    24
 71
     2
 72
     6
 73
     3
 74
     0
 42
0.000000001
 43
0.0000000001
 40
0.0
 40
0.0
 40
0.0
 40
1.5
 40
1.5
 40
1.5
 10
-50.2
 20
53.5
 30
-120.0
 10
-50.2
 20
54.25
 30
-120.0
 10
-50.2
 20
55.0
 30
-120.0
  0
ARC
  5
1D3
330
15E
100
AcDbEntity
  8
Layer 01
100
AcDbCircle
 10
51.5
 20
-120.0
 30
55.0
 40
1.3
210
0.0
220
1.0
230
0.0
100
AcDbArc
 50
180.0
 51
0.0
  0
ARC
  5
1D4
330
15E
100
AcDbEntity
  8
Layer 01
100
AcDbCircle
 10
51.5
 20
-120.0
 30
53.5
 40
1.3
210
0.0
220
1.0
230
0.0
100
AcDbArc
 50
180.0
 51
0.0
  0
ARC
  5
1D5
330
15E
100
AcDbEntity
  8
Layer 01
100
AcDbCircle
 10
0.0
 20
0.0
 30
55.0
 40
7.5
210
0.0
220
1.0
230
0.0
100
AcDbArc
 50
270.0
 51
90.0
  0
SPLINE
  5
1D6
330
15E
100
AcDbEntity
  8
Layer 01
100
AcDbSpline
210
0.0
220
0.0
230
1.0
 70
    24
 71
     2
 72
     6
 73
     3
 74
     0
 42
0.000000001
 43
0.0000000001
 40
0.0
 40
0.0
 40
0.0
 40
1.5
 40
1.5
 40
1.5
 10
0.0
 20
55.0
 30
-7.5
 10
0.0
 20
54.25
 30
-7.5
 10
0.0
 20
53.5
 30
-7.5
  0
ARC
  5
1D7
330
15E
100
AcDbEntity
  8
Layer 01
100
AcDbCircle
 10
0.0
 20
0.0
 30
53.5
 40
7.5
210
0.0
220
1.0
230
0.0
100
AcDbArc
 50
270.0
 51
90.0
  0
SPLINE
  5
1D8
330
15E
100
AcDbEntity
  8
Layer 01
100
AcDbSpline
210
0.0
220
0.0
230
1.0
 70
    24
 71
     2
 72
     6
 73
     3
 74
     0
 42
0.000000001
 43
0.0000000001
 40
0.0
 40
0.0
 40
0.0
 40
1.5
 40
1.5
 40
1.5
 10
0.0
 20
53.5
 30
7.5
 10
0.0
 20
54.25
 30
7.5
 10
0.0
 20
55.0
 30
7.5
  0
ARC
  5
1D9
330
15E
100
AcDbEntity
  8
Layer 01
100
AcDbCircle
 10
0.0
 20
0.0
 30
55.0
 40
7.5
210
0.0
220
1.0
230
0.0
100
AcDbArc
 50
90.00000000000001
 51
270.0
  0
ARC
  5
1DA
330
15E
100
AcDbEntity
  8
Layer 01
100
AcDbCircle
 10
0.0
 20
0.0
 30
53.5
 40
7.5
210
0.0
220
1.0
230
0.0
100
AcDbArc
 50
90.00000000000001
 51
270.0
  0
ARC
  5
1DB
330
15E
100
AcDbEntity
  8
Layer 01
100
AcDbCircle
 10
130.399986549
 20
-34.94057108884
 30
53.5
 40
11.0
210
0.0
220
1.0
230
0.0
100
AcDbArc
 50
180.0
 51
0.0
  0
ARC
  5
1DC
330
15E
100
AcDbEntity
  8
Layer 01
100
AcDbCircle
 10
130.39998654905
 20
-34.94057108884
 30
55.43896951832
 40
8.193896951850007
210
0.0
220
1.0
230
0.0
100
AcDbArc
 50
180.0
 51
0.0
  0
ARC
  5
1DD
330
15E
100
AcDbEntity
  8
Layer 01
100
AcDbCircle
 10
119.399986549
 20
56.5000000000442
 30
34.94057108884
 40
3.000000000044196
210
0.0
220
0.0
230
-1.0
100
AcDbArc
 50
270.0
 51
339.2876280445705
  0
ARC
  5
1DE
330
15E
100
AcDbEntity
  8
Layer 01
100
AcDbCircle
 10
141.399986549
 20
56.49999999989949
 30
34.94057108884
 40
2.999999999899487
210
0.0
220
0.0
230
-1.0
100
AcDbArc
 50
200.7123719535199
 51
270.0
  0
ARC
  5
1DF
330
15E
100
AcDbEntity
  8
Layer 01
100
AcDbCircle
 10
130.399986549
 20
-34.94057108884
 30
53.5
 40
11.0
210
0.0
220
1.0
230
0.0
100
AcDbArc
 50
0.0
 51
180.0
  0
ARC
  5
1E0
330
15E
100
AcDbEntity
  8
Layer 01
100
AcDbCircle
 10
130.39998654905
 20
-34.94057108884
 30
55.43896951832
 40
8.193896951850007
210
0.0
220
1.0
230
0.0
100
AcDbArc
 50
0.0
 51
180.0
  0
SPLINE
  5
1E1
330
15E
100
AcDbEntity
  8
Layer 01
100
AcDbSpline
210
0.0
220
0.0
230
1.0
 70
    24
 71
     2
 72
     6
 73
     3
 74
     0
 42
0.000000001
 43
0.0000000001
 40
0.0
 40
0.0
 40
0.0
 40
2.236067977514078
 40
2.236067977514078
 40
2.236067977514078
 10
-137.8030380731
 20
57.53051524084
 30
-34.94057108884
 10
-138.198460787
 20
56.48474237958
 30
-34.94057108884
 10
-138.5938835009
 20
55.43896951832
 30
-34.94057108884
  0
SPLINE
  5
1E2
330
15E
100
AcDbEntity
  8
Layer 01
100
AcDbSpline
210
0.0
220
0.0
230
1.0
 70
    24
 71
     2
 72
     6
 73
     3
 74
     0
 42
0.000000001
 43
0.0000000001
 40
0.0
 40
0.0
 40
0.0
 40
2.236067977478704
 40
2.236067977478704
 40
2.236067977478704
 10
-122.2060895972
 20
55.43896951832
 30
-34.94057108884
 10
-122.60151231105
 20
56.48474237958
 30
-34.94057108884
 10
-122.9969350249
 20
57.53051524084
 30
-34.94057108884
  0
ARC
  5
1E3
330
15E
100
AcDbEntity
  8
Layer 01
100
AcDbCircle
 10
-130.399986549
 20
-34.94057108884
 30
-57.53051524084
 40
7.403051524099993
210
0.0
220
-1.0
230
0.0
100
AcDbArc
 50
0.0
 51
180.0
  0
ARC
  5
1E4
330
15E
100
AcDbEntity
  8
Layer 01
100
AcDbCircle
 10
-130.399986549
 20
-34.94057108884
 30
-57.53051524084
 40
7.403051524099993
210
0.0
220
-1.0
230
0.0
100
AcDbArc
 50
180.0
 51
0.0
  0
ARC
  5
1E5
330
15E
100
AcDbEntity
  8
Layer 01
100
AcDbCircle
 10
-130.399986549
 20
-34.94057108884
 30
-58.5
 40
6.0
210
0.0
220
-1.0
230
0.0
100
AcDbArc
 50
180.0
 51
0.0
  0
ARC
  5
1E6
330
15E
100
AcDbEntity
  8
Layer 01
100
AcDbCircle
 10
124.399986549
 20
56.99999999997787
 30
34.94057108884
 40
1.500000000022126
210
0.0
220
0.0
230
-1.0
100
AcDbArc
 50
90.0
 51
159.2876280445694
  0
ARC
  5
1E7
330
15E
100
AcDbEntity
  8
Layer 01
100
AcDbCircle
 10
136.399986549
 20
56.99999999997794
 30
34.94057108884
 40
1.500000000022055
210
0.0
220
0.0
230
-1.0
100
AcDbArc
 50
20.71237195542868
 51
90.0
  0
ARC
  5
1E8
330
15E
100
AcDbEntity
  8
Layer 01
100
AcDbCircle
 10
-130.399986549
 20
-34.94057108884
 30
-60.0
 40
2.75
210
0.0
220
-1.0
230
0.0
100
AcDbArc
 50
0.0
 51
180.0
  0
SPLINE
  5
1E9
330
15E
100
AcDbEntity
  8
Layer 01
100
AcDbSpline
210
0.0
220
0.0
230
1.0
 70
    24
 71
     2
 72
     6
 73
     3
 74
     0
 42
0.000000001
 43
0.0000000001
 40
0.0
 40
0.0
 40
0.0
 40
1.5
 40
1.5
 40
1.5
 10
-133.149986549
 20
60.0
 30
-34.94057108884
 10
-133.149986549
 20
59.25
 30
-34.94057108884
 10
-133.149986549
 20
58.5
 30
-34.94057108884
  0
ARC
  5
1EA
330
15E
100
AcDbEntity
  8
Layer 01
100
AcDbCircle
 10
-130.399986549
 20
-34.94057108884
 30
-58.5
 40
2.75
210
0.0
220
-1.0
230
0.0
100
AcDbArc
 50
0.0
 51
180.0
  0
SPLINE
  5
1EB
330
15E
100
AcDbEntity
  8
Layer 01
100
AcDbSpline
210
0.0
220
0.0
230
1.0
 70
    24
 71
     2
 72
     6
 73
     3
 74
     0
 42
0.000000001
 43
0.0000000001
 40
0.0
 40
0.0
 40
0.0
 40
1.5
 40
1.5
 40
1.5
 10
-127.649986549
 20
58.5
 30
-34.94057108884
 10
-127.649986549
 20
59.25
 30
-34.94057108884
 10
-127.649986549
 20
60.0
 30
-34.94057108884
  0
ARC
  5
1EC
330
15E
100
AcDbEntity
  8
Layer 01
100
AcDbCircle
 10
-130.399986549
 20
-34.94057108884
 30
-60.0
 40
2.75
210
0.0
220
-1.0
230
0.0
100
AcDbArc
 50
180.0
 51
0.0
  0
ARC
  5
1ED
330
15E
100
AcDbEntity
  8
Layer 01
100
AcDbCircle
 10
-130.399986549
 20
-34.94057108884
 30
-58.5
 40
2.75
210
0.0
220
-1.0
230
0.0
100
AcDbArc
 50
180.0
 51
0.0
  0
ARC
  5
1EE
330
15E
100
AcDbEntity
  8
Layer 01
100
AcDbCircle
 10
130.399986549
 20
-34.94057108884
 30
60.0
 40
6.0
210
0.0
220
1.0
230
0.0
100
AcDbArc
 50
180.0
 51
0.0
  0
ARC
  5
1EF
330
15E
100
AcDbEntity
  8
Layer 01
100
AcDbCircle
 10
130.39998654905
 20
-34.94057108884
 30
58.06103048168
 40
8.806103048149993
210
0.0
220
1.0
230
0.0
100
AcDbArc
 50
180.0
 51
0.0
  0
ARC
  5
1F0
330
15E
100
AcDbEntity
  8
Layer 01
100
AcDbCircle
 10
124.399986549
 20
57.00000000010051
 30
34.94057108884
 40
2.999999999899487
210
0.0
220
0.0
230
-1.0
100
AcDbArc
 50
90.0
 51
159.2876280464801
  0
ARC
  5
1F1
330
15E
100
AcDbEntity
  8
Layer 01
100
AcDbCircle
 10
136.399986549
 20
56.9999999999558
 30
34.94057108884
 40
3.000000000044196
210
0.0
220
0.0
230
-1.0
100
AcDbArc
 50
20.71237195542969
 51
90.0
  0
ARC
  5
1F2
330
15E
100
AcDbEntity
  8
Layer 01
100
AcDbCircle
 10
130.399986549
 20
-34.94057108884
 30
60.0
 40
6.0
210
0.0
220
1.0
230
0.0
100
AcDbArc
 50
0.0
 51
180.0
  0
ARC
  5
1F3
330
15E
100
AcDbEntity
  8
Layer 01
100
AcDbCircle
 10
130.39998654905
 20
-34.94057108884
 30
58.06103048168
 40
8.806103048149993
210
0.0
220
1.0
230
0.0
100
AcDbArc
 50
0.0
 51
180.0
  0
SPLINE
  5
1F4
330
15E
100
AcDbEntity
  8
Layer 01
100
AcDbSpline
210
0.0
220
0.0
230
1.0
 70
    24
 71
     2
 72
     6
 73
     3
 74
     0
 42
0.000000001
 43
0.0000000001
 40
-2.236067977478714
 40
-2.236067977478714
 40
-2.236067977478714
 40
0.0
 40
0.0
 40
0.0
 10
-139.2060895972
 20
58.06103048168
 30
-34.94057108884
 10
-139.60151231105
 20
57.01525762042
 30
-34.94057108884
 10
-139.9969350249
 20
55.96948475916
 30
-34.94057108884
  0
SPLINE
  5
1F5
330
15E
100
AcDbEntity
  8
Layer 01
100
AcDbSpline
210
0.0
220
0.0
230
1.0
 70
    24
 71
     2
 72
     6
 73
     3
 74
     0
 42
0.000000001
 43
0.0000000001
 40
-2.236067977514078
 40
-2.236067977514078
 40
-2.236067977514078
 40
0.0
 40
0.0
 40
0.0
 10
-120.8030380731
 20
55.96948475916
 30
-34.94057108884
 10
-121.198460787
 20
57.01525762042
 30
-34.94057108884
 10
-121.5938835009
 20
58.06103048168
 30
-34.94057108884
  0
ARC
  5
1F6
330
15E
100
AcDbEntity
  8
Layer 01
100
AcDbCircle
 10
130.399986549
 20
-34.94057108884
 30
55.96948475916
 40
9.596948475900035
210
0.0
220
1.0
230
0.0
100
AcDbArc
 50
0.0
 51
180.0
  0
ARC
  5
1F7
330
15E
100
AcDbEntity
  8
Layer 01
100
AcDbCircle
 10
130.399986549
 20
-34.94057108884
 30
55.96948475916
 40
9.596948475899978
210
0.0
220
1.0
230
0.0
100
AcDbArc
 50
180.0
 51
0.0
  0
ARC
  5
1F8
330
15E
100
AcDbEntity
  8
Layer 01
100
AcDbCircle
 10
130.399986549
 20
-34.94057108884
 30
55.0
 40
11.0
210
0.0
220
1.0
230
0.0
100
AcDbArc
 50
180.0
 51
0.0
  0
ARC
  5
1F9
330
15E
100
AcDbEntity
  8
Layer 01
100
AcDbCircle
 10
130.399986549
 20
-34.94057108884
 30
55.0
 40
11.0
210
0.0
220
1.0
230
0.0
100
AcDbArc
 50
0.0
 51
180.0
  0
ARC
  5
1FA
330
15E
100
AcDbEntity
  8
Layer 01
100
AcDbCircle
 10
-141.399986549
 20
56.50000000002208
 30
-34.94057108884
 40
1.500000000022077
100
AcDbArc
 50
270.0
 51
339.2876280445712
  0
ARC
  5
1FB
330
15E
100
AcDbEntity
  8
Layer 01
100
AcDbCircle
 10
-119.399986549
 20
56.50000000002209
 30
-34.94057108884
 40
1.500000000022091
100
AcDbArc
 50
200.7123719554296
 51
270.0
  0
ARC
  5
1FC
330
15E
100
AcDbEntity
  8
Layer 01
100
AcDbCircle
 10
130.399986549
 20
-34.94057108884
 30
58.5
 40
6.0
210
0.0
220
1.0
230
0.0
100
AcDbArc
 50
0.0
 51
180.0
  0
ARC
  5
1FD
330
15E
100
AcDbEntity
  8
Layer 01
100
AcDbCircle
 10
56.50000000028884
 20
-119.399986548937
 30
34.94057108868415
 40
3.000000000001648
210
0.8660254037844287
220
-2.764779356278780E-12
230
0.5000000000000172
100
AcDbArc
 50
180.0000000000909
 51
249.2876280452234
  0
ARC
  5
1FE
330
15E
100
AcDbEntity
  8
Layer 01
100
AcDbCircle
 10
-95.45941546018256
 20
-95.45941546018427
 30
53.5
 40
10.99999999999737
210
0.0
220
1.0
230
0.0
100
AcDbArc
 50
59.99999999997654
 51
239.9999999998872
  0
ARC
  5
1FF
330
15E
100
AcDbEntity
  8
Layer 01
100
AcDbCircle
 10
-95.45941546019208
 20
-95.4594154602009
 30
55.43896951832006
 40
8.193896951845906
210
2.167902342234823E-16
220
1.0
230
-3.754917002616606E-16
100
AcDbArc
 50
60.00000000000685
 51
240.0000000001214
  0
ARC
  5
200
330
15E
100
AcDbEntity
  8
Layer 01
100
AcDbCircle
 10
56.49999999760121
 20
-141.3999865496781
 30
34.94057108993407
 40
2.999999999946283
210
0.866025403784429
220
2.011590841845469E-11
230
0.5000000000000168
100
AcDbArc
 50
110.7123719534721
 51
179.999999999335
  0
ARC
  5
201
330
15E
100
AcDbEntity
  8
Layer 01
100
AcDbCircle
 10
-95.459415460192
 20
-95.45941546020096
 30
55.43896951831995
 40
8.193896951845883
210
-2.167902342242280E-16
220
1.0
230
3.754917002612308E-16
100
AcDbArc
 50
240.0000000001205
 51
60.00000000000755
  0
ARC
  5
202
330
15E
100
AcDbEntity
  8
Layer 01
100
AcDbCircle
 10
-95.45941546018238
 20
-95.45941546018439
 30
53.5
 40
10.99999999999736
210
0.0
220
1.0
230
0.0
100
AcDbArc
 50
239.9999999998862
 51
59.99999999997763
  0
SPLINE
  5
203
330
15E
100
AcDbEntity
  8
Layer 01
100
AcDbSpline
210
0.0
220
0.0
230
1.0
 70
    24
 71
     2
 72
     6
 73
     3
 74
     0
 42
0.000000001
 43
0.0000000001
 40
0.0
 40
0.0
 40
0.0
 40
2.236067977496034
 40
2.236067977496034
 40
2.236067977496034
 10
99.16094122222998
 20
57.53051524084
 30
-101.8706461456
 10
99.358652579165
 20
56.48474237958001
 30
-102.21309226105
 10
99.55636393610001
 20
55.43896951832001
 30
-102.5555383765
  0
SPLINE
  5
204
330
15E
100
AcDbEntity
  8
Layer 01
100
AcDbSpline
210
0.0
220
0.0
230
1.0
 70
    24
 71
     2
 72
     6
 73
     3
 74
     0
 42
0.000000001
 43
0.0000000001
 40
0.0
 40
0.0
 40
0.0
 40
2.236067977492975
 40
2.236067977492975
 40
2.236067977492975
 10
91.36246698426999
 20
55.43896951832001
 30
-88.36329254391
 10
91.560178341205
 20
56.48474237958001
 30
-88.705738659355
 10
91.75788969814002
 20
57.53051524084
 30
-89.0481847748
  0
ARC
  5
205
330
15E
100
AcDbEntity
  8
Layer 01
100
AcDbCircle
 10
95.4594154601899
 20
-95.45941546019718
 30
-57.53051524084
 40
7.403051524101213
210
0.0
220
-1.0
230
0.0
100
AcDbArc
 50
119.9999999999936
 51
299.999999999906
  0
ARC
  5
206
330
15E
100
AcDbEntity
  8
Layer 01
100
AcDbCircle
 10
95.45941546018989
 20
-95.45941546019716
 30
-57.53051524084
 40
7.403051524101179
210
0.0
220
-1.0
230
0.0
100
AcDbArc
 50
299.999999999906
 51
119.9999999999936
  0
ARC
  5
207
330
15E
100
AcDbEntity
  8
Layer 01
100
AcDbCircle
 10
95.45941546018433
 20
-95.45941546018746
 30
-58.5
 40
6.000000000002913
210
0.0
220
-1.0
230
0.0
100
AcDbArc
 50
299.999999999936
 51
120.0000000000319
  0
ARC
  5
208
330
15E
100
AcDbEntity
  8
Layer 01
100
AcDbCircle
 10
56.99999999953845
 20
-124.3999865491663
 30
34.94057108908478
 40
1.500000000003503
210
0.8660254037844315
220
4.290343676765450E-12
230
0.5000000000000121
100
AcDbArc
 50
359.9999999998589
 51
69.28762804491946
  0
ARC
  5
209
330
15E
100
AcDbEntity
  8
Layer 01
100
AcDbCircle
 10
57.00000000060837
 20
-136.3999865488447
 30
34.94057108849816
 40
1.50000000003574
210
0.8660254037844292
220
-5.665490166585810E-12
230
0.5000000000000165
100
AcDbArc
 50
290.7123719559776
 51
0.0000000001878139
  0
ARC
  5
20A
330
15E
100
AcDbEntity
  8
Layer 01
100
AcDbCircle
 10
95.45941546018217
 20
-95.45941546018376
 30
-60.0
 40
2.749999999998049
210
0.0
220
-1.0
230
0.0
100
AcDbArc
 50
120.0000000000751
 51
299.9999999999708
  0
SPLINE
  5
20B
330
15E
100
AcDbEntity
  8
Layer 01
100
AcDbSpline
210
0.0
220
0.0
230
1.0
 70
    24
 71
     2
 72
     6
 73
     3
 74
     0
 42
0.000000001
 43
0.0000000001
 40
0.0
 40
0.0
 40
0.0
 40
1.5
 40
1.5
 40
1.5
 10
96.83441546017998
 20
60.0
 30
-97.84098532059
 10
96.83441546017998
 20
59.25
 30
-97.84098532059
 10
96.83441546017998
 20
58.5
 30
-97.84098532059
  0
ARC
  5
20C
330
15E
100
AcDbEntity
  8
Layer 01
100
AcDbCircle
 10
95.45941546018217
 20
-95.45941546018376
 30
-58.5
 40
2.749999999998049
210
0.0
220
-1.0
230
0.0
100
AcDbArc
 50
120.0000000000751
 51
299.9999999999708
  0
SPLINE
  5
20D
330
15E
100
AcDbEntity
  8
Layer 01
100
AcDbSpline
210
0.0
220
0.0
230
1.0
 70
    24
 71
     2
 72
     6
 73
     3
 74
     0
 42
0.000000001
 43
0.0000000001
 40
0.0
 40
0.0
 40
0.0
 40
1.5
 40
1.5
 40
1.5
 10
94.08441546018
 20
58.5
 30
-93.07784559978
 10
94.08441546018
 20
59.25
 30
-93.07784559978
 10
94.08441546018
 20
60.0
 30
-93.07784559978
  0
ARC
  5
20E
330
15E
100
AcDbEntity
  8
Layer 01
100
AcDbCircle
 10
95.45941546018217
 20
-95.45941546018376
 30
-60.0
 40
2.749999999998038
210
0.0
220
-1.0
230
0.0
100
AcDbArc
 50
299.9999999999706
 51
120.0000000000752
  0
ARC
  5
20F
330
15E
100
AcDbEntity
  8
Layer 01
100
AcDbCircle
 10
95.45941546018217
 20
-95.45941546018376
 30
-58.5
 40
2.749999999998038
210
0.0
220
-1.0
230
0.0
100
AcDbArc
 50
299.9999999999706
 51
120.0000000000752
  0
ARC
  5
210
330
15E
100
AcDbEntity
  8
Layer 01
100
AcDbCircle
 10
-95.4594154601843
 20
-95.45941546018747
 30
60.0
 40
6.000000000002911
210
0.0
220
1.0
230
0.0
100
AcDbArc
 50
59.99999999996842
 51
240.0000000000637
  0
ARC
  5
211
330
15E
100
AcDbEntity
  8
Layer 01
100
AcDbCircle
 10
-95.4594154601748
 20
-95.45941546017086
 30
58.06103048168006
 40
8.806103048149378
210
2.017188340513257E-16
220
1.0
230
-3.493872694182829E-16
100
AcDbArc
 50
59.9999999999991
 51
239.999999999846
  0
ARC
  5
212
330
15E
100
AcDbEntity
  8
Layer 01
100
AcDbCircle
 10
56.99999999982431
 20
-124.3999865490811
 30
34.94057108893515
 40
2.999999999994432
210
0.8660254037844294
220
1.697711715894200E-12
230
0.5000000000000159
100
AcDbArc
 50
359.9999999999441
 51
69.28762804517078
  0
ARC
  5
213
330
15E
100
AcDbEntity
  8
Layer 01
100
AcDbCircle
 10
56.99999999827968
 20
-136.3999865495467
 30
34.94057108976963
 40
2.99999999993905
210
0.866025403784429
220
1.566761743073584E-11
230
0.5000000000000167
100
AcDbArc
 50
290.7123719535237
 51
359.9999999994811
  0
ARC
  5
214
330
15E
100
AcDbEntity
  8
Layer 01
100
AcDbCircle
 10
-95.4594154601843
 20
-95.45941546018749
 30
60.0
 40
6.000000000002911
210
0.0
220
1.0
230
0.0
100
AcDbArc
 50
240.0000000000637
 51
59.99999999996842
  0
ARC
  5
215
330
15E
100
AcDbEntity
  8
Layer 01
100
AcDbCircle
 10
-95.4594154601748
 20
-95.45941546017087
 30
58.06103048168
 40
8.806103048149373
210
0.0
220
1.0
230
0.0
100
AcDbArc
 50
239.9999999998458
 51
59.99999999999917
  0
SPLINE
  5
216
330
15E
100
AcDbEntity
  8
Layer 01
100
AcDbSpline
210
0.0
220
0.0
230
1.0
 70
    24
 71
     2
 72
     6
 73
     3
 74
     0
 42
0.000000001
 43
0.0000000001
 40
-2.236067977488964
 40
-2.236067977488964
 40
-2.236067977488964
 40
0.0
 40
0.0
 40
0.0
 10
99.86246698427001
 20
58.06103048168
 30
-103.0857244082
 10
100.060178341185
 20
57.01525762042
 30
-103.42817052365
 10
100.2578896981
 20
55.96948475916
 30
-103.7706166391
  0
SPLINE
  5
217
330
15E
100
AcDbEntity
  8
Layer 01
100
AcDbSpline
210
0.0
220
0.0
230
1.0
 70
    24
 71
     2
 72
     6
 73
     3
 74
     0
 42
0.000000001
 43
0.0000000001
 40
-2.236067977496039
 40
-2.236067977496039
 40
-2.236067977496039
 40
0.0
 40
0.0
 40
0.0
 10
90.66094122223001
 20
55.96948475916
 30
-87.14821428123
 10
90.85865257916501
 20
57.01525762042
 30
-87.49066039668
 10
91.0563639361
 20
58.06103048168001
 30
-87.83310651213
  0
ARC
  5
218
330
15E
100
AcDbEntity
  8
Layer 01
100
AcDbCircle
 10
-95.45941546016984
 20
-95.45941546016223
 30
55.96948475916
 40
9.596948475888395
210
0.0
220
1.0
230
0.0
100
AcDbArc
 50
240.0000000000966
 51
60.00000000003012
  0
ARC
  5
219
330
15E
100
AcDbEntity
  8
Layer 01
100
AcDbCircle
 10
56.50000000101825
 20
-119.3999865487064
 30
34.9405710882935
 40
1.499999999998203
210
0.8660254037844353
220
-9.819931018525434E-12
230
0.5000000000000061
100
AcDbArc
 50
180.0000000003235
 51
249.2876280455259
  0
ARC
  5
21A
330
15E
100
AcDbEntity
  8
Layer 01
100
AcDbCircle
 10
-95.45941546016986
 20
-95.45941546016218
 30
55.96948475916
 40
9.596948475888397
210
0.0
220
1.0
230
0.0
100
AcDbArc
 50
60.00000000002985
 51
240.0000000000969
  0
ARC
  5
21B
330
15E
100
AcDbEntity
  8
Layer 01
100
AcDbCircle
 10
-95.45941546018256
 20
-95.45941546018427
 30
55.0
 40
10.99999999999737
210
0.0
220
1.0
230
0.0
100
AcDbArc
 50
59.99999999997654
 51
239.9999999998872
  0
ARC
  5
21C
330
15E
100
AcDbEntity
  8
Layer 01
100
AcDbCircle
 10
-95.45941546018238
 20
-95.45941546018439
 30
55.0
 40
10.99999999999736
210
0.0
220
1.0
230
0.0
100
AcDbArc
 50
239.9999999998862
 51
59.99999999997763
  0
ARC
  5
21D
330
15E
100
AcDbEntity
  8
Layer 01
100
AcDbCircle
 10
-56.49999999552742
 20
-141.3999865502936
 30
-34.94057109100167
 40
1.500000000071964
210
-0.866025403784428
220
-3.898292513044953E-11
230
-0.5000000000000183
100
AcDbArc
 50
0.0000000012908133
 51
69.28762804454375
  0
ARC
  5
21E
330
15E
100
AcDbEntity
  8
Layer 01
100
AcDbCircle
 10
95.4594154601843
 20
-95.45941546018749
 30
-58.5
 40
6.000000000002911
210
0.0
220
-1.0
230
0.0
100
AcDbArc
 50
120.0000000000316
 51
299.9999999999363
  0
ARC
  5
21F
330
15E
100
AcDbEntity
  8
Layer 01
100
AcDbCircle
 10
-56.50000000031227
 20
119.3999865486625
 30
34.9405710894433
 40
2.99999999993181
210
-0.8660254037844315
220
1.119149885807135E-11
230
0.5000000000000121
100
AcDbArc
 50
0.0000000003699282
 51
69.28762804642359
  0
ARC
  5
220
330
15E
100
AcDbEntity
  8
Layer 01
100
AcDbCircle
 10
-34.9405710888617
 20
130.3999865490375
 30
53.5
 40
11.00000000001834
210
0.0
220
1.0
230
0.0
100
AcDbArc
 50
300.0000000000753
 51
119.9999999998144
  0
ARC
  5
221
330
15E
100
AcDbEntity
  8
Layer 01
100
AcDbCircle
 10
-34.9405710888399
 20
130.3999865490001
 30
55.43896951832
 40
8.193896951852723
210
0.0
220
1.0
230
0.0
100
AcDbArc
 50
299.9999999999478
 51
119.9999999999495
  0
ARC
  5
222
330
15E
100
AcDbEntity
  8
Layer 01
100
AcDbCircle
 10
-56.50000000073799
 20
141.3999865485883
 30
34.940571089647
 40
3.000000000056986
210
-0.8660254037844289
220
1.458360130245163E-11
230
0.5000000000000168
100
AcDbArc
 50
290.7123719560806
 51
0.0000000004831051
  0
ARC
  5
223
330
15E
100
AcDbEntity
  8
Layer 01
100
AcDbCircle
 10
-34.94057108883999
 20
130.399986549
 30
55.43896951832
 40
8.193896951852727
210
0.0
220
1.0
230
0.0
100
AcDbArc
 50
119.9999999999486
 51
299.9999999999486
  0
ARC
  5
224
330
15E
100
AcDbEntity
  8
Layer 01
100
AcDbCircle
 10
-34.94057108886165
 20
130.3999865490375
 30
53.5
 40
11.00000000001831
210
0.0
220
1.0
230
0.0
100
AcDbArc
 50
119.9999999998148
 51
300.0000000000751
  0
SPLINE
  5
225
330
15E
100
AcDbEntity
  8
Layer 01
100
AcDbSpline
210
0.0
220
0.0
230
1.0
 70
    24
 71
     2
 72
     6
 73
     3
 74
     0
 42
0.000000001
 43
0.0000000001
 40
0.0
 40
0.0
 40
0.0
 40
2.236067977497806
 40
2.236067977497806
 40
2.236067977497806
 10
38.64209685087999
 20
57.53051524084
 30
136.8112172344
 10
38.83980820782
 20
56.48474237958
 30
137.15366334985
 10
39.03751956476
 20
55.43896951832
 30
137.4961094653
  0
SPLINE
  5
226
330
15E
100
AcDbEntity
  8
Layer 01
100
AcDbSpline
210
0.0
220
0.0
230
1.0
 70
    24
 71
     2
 72
     6
 73
     3
 74
     0
 42
0.000000001
 43
0.0000000001
 40
0.0
 40
0.0
 40
0.0
 40
2.236067977497806
 40
2.236067977497806
 40
2.236067977497806
 10
30.84362261291999
 20
55.43896951832
 30
123.3038636327
 10
31.04133396986
 20
56.48474237958
 30
123.64630974815
 10
31.2390453268
 20
57.53051524084
 30
123.9887558636
  0
ARC
  5
227
330
15E
100
AcDbEntity
  8
Layer 01
100
AcDbCircle
 10
34.94057108884002
 20
130.399986549
 30
-57.53051524084
 40
7.403051524098703
210
0.0
220
-1.0
230
0.0
100
AcDbArc
 50
240.0000000000834
 51
60.00000000008384
  0
ARC
  5
228
330
15E
100
AcDbEntity
  8
Layer 01
100
AcDbCircle
 10
34.94057108884
 20
130.399986549
 30
-57.53051524084
 40
7.403051524098703
210
0.0
220
-1.0
230
0.0
100
AcDbArc
 50
60.00000000008354
 51
240.0000000000836
  0
ARC
  5
229
330
15E
100
AcDbEntity
  8
Layer 01
100
AcDbCircle
 10
34.94057108884002
 20
130.399986549
 30
-58.5
 40
5.999999999994253
210
0.0
220
-1.0
230
0.0
100
AcDbArc
 50
59.99999999996862
 51
239.9999999999681
  0
ARC
  5
22A
330
15E
100
AcDbEntity
  8
Layer 01
100
AcDbCircle
 10
-56.99999999943323
 20
124.3999865494885
 30
34.94057108798005
 40
1.500000000028571
210
-0.8660254037844308
220
-1.459264813038560E-11
230
0.5000000000000134
100
AcDbArc
 50
179.9999999995175
 51
249.2876280439168
  0
ARC
  5
22B
330
15E
100
AcDbEntity
  8
Layer 01
100
AcDbCircle
 10
-57.00000000061095
 20
136.3999865485163
 30
34.94057108968168
 40
1.500000000028535
210
-0.866025403784429
220
1.459688525234173E-11
230
0.5000000000000165
100
AcDbArc
 50
110.7123719560829
 51
180.0000000004842
  0
ARC
  5
22C
330
15E
100
AcDbEntity
  8
Layer 01
100
AcDbCircle
 10
34.94057108884002
 20
130.399986549
 30
-60.0
 40
2.749999999993766
210
0.0
220
-1.0
230
0.0
100
AcDbArc
 50
239.9999999999242
 51
59.99999999992554
  0
SPLINE
  5
22D
330
15E
100
AcDbEntity
  8
Layer 01
100
AcDbSpline
210
0.0
220
0.0
230
1.0
 70
    24
 71
     2
 72
     6
 73
     3
 74
     0
 42
0.000000001
 43
0.0000000001
 40
0.0
 40
0.0
 40
0.0
 40
1.5
 40
1.5
 40
1.5
 10
36.31557108884
 20
60.0
 30
132.7815564094
 10
36.31557108884
 20
59.25
 30
132.7815564094
 10
36.31557108884
 20
58.5
 30
132.7815564094
  0
ARC
  5
22E
330
15E
100
AcDbEntity
  8
Layer 01
100
AcDbCircle
 10
34.94057108884002
 20
130.399986549
 30
-58.5
 40
2.749999999993766
210
0.0
220
-1.0
230
0.0
100
AcDbArc
 50
239.9999999999242
 51
59.99999999992554
  0
SPLINE
  5
22F
330
15E
100
AcDbEntity
  8
Layer 01
100
AcDbSpline
210
0.0
220
0.0
230
1.0
 70
    24
 71
     2
 72
     6
 73
     3
 74
     0
 42
0.000000001
 43
0.0000000001
 40
0.0
 40
0.0
 40
0.0
 40
1.5
 40
1.5
 40
1.5
 10
33.56557108883999
 20
58.5
 30
128.0184166886
 10
33.56557108883999
 20
59.25
 30
128.0184166886
 10
33.56557108883999
 20
60.0
 30
128.0184166886
  0
ARC
  5
230
330
15E
100
AcDbEntity
  8
Layer 01
100
AcDbCircle
 10
34.94057108883997
 20
130.399986549
 30
-60.0
 40
2.749999999993734
210
0.0
220
-1.0
230
0.0
100
AcDbArc
 50
59.99999999992403
 51
239.9999999999255
  0
ARC
  5
231
330
15E
100
AcDbEntity
  8
Layer 01
100
AcDbCircle
 10
34.94057108883997
 20
130.399986549
 30
-58.5
 40
2.749999999993734
210
0.0
220
-1.0
230
0.0
100
AcDbArc
 50
59.99999999992403
 51
239.9999999999255
  0
ARC
  5
232
330
15E
100
AcDbEntity
  8
Layer 01
100
AcDbCircle
 10
-34.94057108884002
 20
130.399986549
 30
60.0
 40
5.999999999994251
210
0.0
220
1.0
230
0.0
100
AcDbArc
 50
300.0000000000319
 51
120.0000000000314
  0
ARC
  5
233
330
15E
100
AcDbEntity
  8
Layer 01
100
AcDbCircle
 10
-34.94057108886175
 20
130.3999865490374
 30
58.06103048168
 40
8.806103048159843
210
0.0
220
1.0
230
0.0
100
AcDbArc
 50
300.0000000001641
 51
119.999999999837
  0
ARC
  5
234
330
15E
100
AcDbEntity
  8
Layer 01
100
AcDbCircle
 10
-57.00000000048102
 20
124.3999865486398
 30
34.94057108950567
 40
2.99999999993175
210
-0.866025403784429
220
1.119192829611086E-11
230
0.5000000000000167
100
AcDbArc
 50
180.0000000003702
 51
249.2876280464242
  0
ARC
  5
235
330
15E
100
AcDbEntity
  8
Layer 01
100
AcDbCircle
 10
-57.00000000058262
 20
136.3999865485162
 30
34.94057108970387
 40
3.000000000057071
210
-0.8660254037844288
220
1.460158044155756E-11
230
0.5000000000000168
100
AcDbArc
 50
110.7123719560825
 51
180.0000000004837
  0
ARC
  5
236
330
15E
100
AcDbEntity
  8
Layer 01
100
AcDbCircle
 10
-34.94057108883999
 20
130.399986549
 30
60.0
 40
5.999999999994261
210
0.0
220
1.0
230
0.0
100
AcDbArc
 50
120.0000000000319
 51
300.0000000000315
  0
ARC
  5
237
330
15E
100
AcDbEntity
  8
Layer 01
100
AcDbCircle
 10
-34.94057108886157
 20
130.3999865490376
 30
58.06103048168
 40
8.806103048159855
210
0.0
220
1.0
230
0.0
100
AcDbArc
 50
119.9999999998384
 51
300.0000000001624
  0
SPLINE
  5
238
330
15E
100
AcDbEntity
  8
Layer 01
100
AcDbSpline
210
0.0
220
0.0
230
1.0
 70
    24
 71
     2
 72
     6
 73
     3
 74
     0
 42
0.000000001
 43
0.0000000001
 40
-2.236067977497807
 40
-2.236067977497807
 40
-2.236067977497807
 40
0.0
 40
0.0
 40
0.0
 10
39.34362261291999
 20
58.06103048168
 30
138.0262954971
 10
39.54133396986001
 20
57.01525762042
 30
138.36874161255
 10
39.73904532680001
 20
55.96948475916
 30
138.711187728
  0
SPLINE
  5
239
330
15E
100
AcDbEntity
  8
Layer 01
100
AcDbSpline
210
0.0
220
0.0
230
1.0
 70
    24
 71
     2
 72
     6
 73
     3
 74
     0
 42
0.000000001
 43
0.0000000001
 40
-2.236067977497806
 40
-2.236067977497806
 40
-2.236067977497806
 40
0.0
 40
0.0
 40
0.0
 10
30.14209685087999
 20
55.96948475916
 30
122.0887853701
 10
30.33980820782
 20
57.01525762042
 30
122.43123148555
 10
30.53751956476001
 20
58.06103048168
 30
122.773677601
  0
ARC
  5
23A
330
15E
100
AcDbEntity
  8
Layer 01
100
AcDbCircle
 10
-34.94057108886162
 20
130.3999865490375
 30
55.96948475916
 40
9.596948475913894
210
0.0
220
1.0
230
0.0
100
AcDbArc
 50
119.9999999998721
 51
300.0000000001701
  0
ARC
  5
23B
330
15E
100
AcDbEntity
  8
Layer 01
100
AcDbCircle
 10
-34.94057108886164
 20
130.3999865490375
 30
55.96948475916
 40
9.596948475913871
210
0.0
220
1.0
230
0.0
100
AcDbArc
 50
300.0000000001702
 51
119.9999999998721
  0
ARC
  5
23C
330
15E
100
AcDbEntity
  8
Layer 01
100
AcDbCircle
 10
-34.9405710888617
 20
130.3999865490375
 30
55.0
 40
11.00000000001834
210
0.0
220
1.0
230
0.0
100
AcDbArc
 50
300.0000000000753
 51
119.9999999998144
  0
ARC
  5
23D
330
15E
100
AcDbEntity
  8
Layer 01
100
AcDbCircle
 10
-34.94057108886165
 20
130.3999865490375
 30
55.0
 40
11.00000000001831
210
0.0
220
1.0
230
0.0
100
AcDbArc
 50
119.9999999998148
 51
300.0000000000751
  0
ARC
  5
23E
330
15E
100
AcDbEntity
  8
Layer 01
100
AcDbCircle
 10
56.50000000070985
 20
141.3999865485879
 30
-34.94057108966991
 40
1.500000000028528
210
0.8660254037844265
220
-1.458989972693364E-11
230
-0.5000000000000211
100
AcDbArc
 50
179.9999999995169
 51
249.2876280439168
  0
ARC
  5
23F
330
15E
100
AcDbEntity
  8
Layer 01
100
AcDbCircle
 10
56.49999999953217
 20
119.3999865495037
 30
-34.94057108804213
 40
1.500000000028564
210
0.8660254037844288
220
1.460180947503361E-11
230
-0.5000000000000171
100
AcDbArc
 50
110.7123719560835
 51
180.0000000004825
  0
ARC
  5
240
330
15E
100
AcDbEntity
  8
Layer 01
100
AcDbCircle
 10
-34.94057108883997
 20
130.399986549
 30
58.5
 40
5.999999999994254
210
0.0
220
1.0
230
0.0
100
AcDbArc
 50
120.000000000032
 51
300.0000000000313
  0
LINE
  5
241
330
15E
100
AcDbEntity
  8
Layer 01
100
AcDbLine
 10
150.0
 20
55.0
 30
0.0
 11
7.499999999999986
 21
55.0
 31
0.0
  0
LINE
  5
242
330
15E
100
AcDbEntity
  8
Layer 01
100
AcDbLine
 10
-7.500000000000013
 20
55.0
 30
0.0
 11
-143.7
 21
55.0
 31
0.0
  0
LINE
  5
243
330
15E
100
AcDbEntity
  8
Layer 01
100
AcDbLine
 10
-146.3
 20
55.0
 30
0.0
 11
-150.0
 21
55.0
 31
0.0
  0
LINE
  5
244
330
15E
100
AcDbEntity
  8
Layer 01
100
AcDbLine
 10
0.0
 20
55.0
 30
150.0
 11
0.0
 21
55.0
 31
7.499999999999986
  0
LINE
  5
245
330
15E
100
AcDbEntity
  8
Layer 01
100
AcDbLine
 10
0.0
 20
55.0
 30
-7.500000000000014
 11
0.0
 21
55.0
 31
-150.0
  0
ARC
  5
246
330
15E
100
AcDbEntity
  8
Layer 01
100
AcDbCircle
 10
45.0
 20
150.0
 30
0.0
 40
10.0
210
1.0
220
0.0
230
0.0
100
AcDbArc
 50
0.0
 51
83.73537454137528
  0
ARC
  5
247
330
15E
100
AcDbEntity
  8
Layer 01
100
AcDbCircle
 10
-45.0
 20
-150.0
 30
0.0
 40
10.0
210
-1.0
220
0.0
230
0.0
100
AcDbArc
 50
180.0
 51
263.7353745413752
  0
ARC
  5
248
330
15E
100
AcDbEntity
  8
Layer 01
100
AcDbCircle
 10
0.0
 20
0.0
 30
-23.04560308258499
 40
162.4701425810995
210
0.0
220
-1.0
230
0.0
100
AcDbArc
 50
180.0
 51
0.0
  0
LINE
  5
249
330
15E
100
AcDbEntity
  8
Layer 01
100
AcDbLine
 10
0.0
 20
46.09120616516788
 30
-159.9402851621807
 11
0.0
 21
0.000000000002002
 31
-165.0000000000183
  0
ARC
  5
24A
330
15E
100
AcDbEntity
  8
Layer 01
100
AcDbCircle
 10
0.0
 20
0.0
 30
-23.04560308258499
 40
162.4701425810995
210
0.0
220
-1.0
230
0.0
100
AcDbArc
 50
0.0
 51
180.0
  0
LINE
  5
24B
330
15E
100
AcDbEntity
  8
Layer 01
100
AcDbLine
 10
0.0
 20
46.09120616516788
 30
159.9402851621807
 11
0.0
 21
0.000000000002002
 31
165.0000000000183
  0
LINE
  5
24C
330
15E
100
AcDbEntity
  8
Layer 01
100
AcDbLine
 10
-0.0000000000000101
 20
-0.1636809247680655
 30
163.5089572256992
 11
-0.0000000000000101
 21
0.0000000000040483
 31
164.9999999999995
  0
LINE
  5
24D
330
15E
100
AcDbEntity
  8
Layer 01
100
AcDbLine
 10
-0.0000000000000101
 20
-0.1636809247680655
 30
-163.5089572256992
 11
-0.0000000000000101
 21
0.0000000000040483
 31
-164.9999999999995
  0
LINE
  5
24E
330
15E
100
AcDbEntity
  8
Layer 01
100
AcDbLine
 10
0.0
 20
45.92752524039884
 30
-158.4492423878806
 11
0.0
 21
-0.1636809247727911
 31
-163.5089572257188
  0
ARC
  5
24F
330
15E
100
AcDbEntity
  8
Layer 01
100
AcDbCircle
 10
0.0
 20
0.0
 30
-22.88192215780759
 40
160.9790998068003
210
0.0
220
-1.0
230
0.0
100
AcDbArc
 50
0.0
 51
180.0
  0
LINE
  5
250
330
15E
100
AcDbEntity
  8
Layer 01
100
AcDbLine
 10
0.0
 20
45.92752524039884
 30
158.4492423878806
 11
0.0
 21
-0.1636809247727298
 31
163.5089572257188
  0
ARC
  5
251
330
15E
100
AcDbEntity
  8
Layer 01
100
AcDbCircle
 10
45.0
 20
150.0
 30
0.0
 40
8.5
210
1.0
220
0.0
230
0.0
100
AcDbArc
 50
0.0
 51
83.73537454135399
  0
ARC
  5
252
330
15E
100
AcDbEntity
  8
Layer 01
100
AcDbCircle
 10
-45.0
 20
-150.0
 30
0.0
 40
8.5
210
-1.0
220
0.0
230
0.0
100
AcDbArc
 50
180.0
 51
263.735374541354
  0
LINE
  5
253
330
15E
100
AcDbEntity
  8
Layer 01
100
AcDbLine
 10
150.0
 20
53.5
 30
0.0
 11
7.499999999999986
 21
53.5
 31
0.0
  0
LINE
  5
254
330
15E
100
AcDbEntity
  8
Layer 01
100
AcDbLine
 10
-7.500000000000013
 20
53.5
 30
0.0
 11
-143.7
 21
53.5
 31
0.0
  0
LINE
  5
255
330
15E
100
AcDbEntity
  8
Layer 01
100
AcDbLine
 10
-146.3
 20
53.5
 30
0.0
 11
-150.0
 21
53.5
 31
0.0
  0
LINE
  5
256
330
15E
100
AcDbEntity
  8
Layer 01
100
AcDbLine
 10
0.0
 20
53.5
 30
150.0
 11
0.0
 21
53.5
 31
7.499999999999986
  0
LINE
  5
257
330
15E
100
AcDbEntity
  8
Layer 01
100
AcDbLine
 10
0.0
 20
53.5
 30
-7.500000000000014
 11
0.0
 21
53.5
 31
-150.0
  0
ARC
  5
258
330
15E
100
AcDbEntity
  8
Layer 01
100
AcDbCircle
 10
-145.0
 20
0.0
 30
-54.25
 40
1.300000000000011
210
0.0
220
-1.0
230
0.0
100
AcDbArc
 50
0.0
 51
180.0
  0
LINE
  5
259
330
15E
100
AcDbEntity
  8
Layer 01
100
AcDbLine
 10
-145.0
 20
55.0
 30
1.300000000000011
 11
-145.0
 21
53.5
 31
1.300000000000011
  0
ARC
  5
25A
330
15E
100
AcDbEntity
  8
Layer 01
100
AcDbCircle
 10
-145.0
 20
0.0
 30
-54.25
 40
1.300000000000011
210
0.0
220
-1.0
230
0.0
100
AcDbArc
 50
180.0
 51
0.0
  0
LINE
  5
25B
330
15E
100
AcDbEntity
  8
Layer 01
100
AcDbLine
 10
-145.0
 20
55.0
 30
-1.300000000000011
 11
-145.0
 21
53.5
 31
-1.300000000000011
  0
ARC
  5
25C
330
15E
100
AcDbEntity
  8
Layer 01
100
AcDbCircle
 10
-144.2056748284
 20
-15.15662717380999
 30
-54.25
 40
1.300000000000011
210
0.0
220
-1.0
230
0.0
100
AcDbArc
 50
0.0
 51
180.0
  0
LINE
  5
25D
330
15E
100
AcDbEntity
  8
Layer 01
100
AcDbLine
 10
-144.2056748284
 20
55.0
 30
-13.85662717380998
 11
-144.2056748284
 21
53.5
 31
-13.85662717380998
  0
ARC
  5
25E
330
15E
100
AcDbEntity
  8
Layer 01
100
AcDbCircle
 10
-144.2056748284
 20
-15.15662717380999
 30
-54.25
 40
1.300000000000011
210
0.0
220
-1.0
230
0.0
100
AcDbArc
 50
180.0
 51
0.0
  0
LINE
  5
25F
330
15E
100
AcDbEntity
  8
Layer 01
100
AcDbLine
 10
-144.2056748284
 20
55.0
 30
-16.45662717381001
 11
-144.2056748284
 21
53.5
 31
-16.45662717381001
  0
ARC
  5
260
330
15E
100
AcDbEntity
  8
Layer 01
100
AcDbCircle
 10
72.49999999999999
 20
-125.5736835487
 30
-54.25
 40
1.299999999999999
210
0.0
220
-1.0
230
0.0
100
AcDbArc
 50
120.0000000004357
 51
299.9999999982326
  0
LINE
  5
261
330
15E
100
AcDbEntity
  8
Layer 01
100
AcDbLine
 10
71.37416697508023
 20
55.0
 30
-126.2236835487
 11
71.37416697508023
 21
53.5
 31
-126.2236835487
  0
ARC
  5
262
330
15E
100
AcDbEntity
  8
Layer 01
100
AcDbCircle
 10
72.5
 20
-125.5736835487
 30
-54.25
 40
1.299999999999999
210
0.0
220
-1.0
230
0.0
100
AcDbArc
 50
299.9999999982322
 51
120.0000000004357
  0
LINE
  5
263
330
15E
100
AcDbEntity
  8
Layer 01
100
AcDbLine
 10
73.15000000000002
 20
55.0
 30
-126.6995165736197
 11
73.15000000000002
 21
53.5
 31
-126.6995165736197
  0
LINE
  5
264
330
15E
100
AcDbEntity
  8
Layer 01
100
AcDbLine
 10
73.62583302491976
 20
55.0
 30
-124.9236835487
 11
73.62583302491976
 21
53.5
 31
-124.9236835487
  0
LINE
  5
265
330
15E
100
AcDbEntity
  8
Layer 01
100
AcDbLine
 10
71.84999999999998
 20
55.0
 30
-124.4478505237802
 11
71.84999999999998
 21
53.5
 31
-124.4478505237802
  0
ARC
  5
266
330
15E
100
AcDbEntity
  8
Layer 01
100
AcDbCircle
 10
85.22886158241002
 20
-117.3074641844
 30
-54.25
 40
1.299999999999999
210
0.0
220
-1.0
230
0.0
100
AcDbArc
 50
119.9999999991166
 51
300.0000000004349
  0
LINE
  5
267
330
15E
100
AcDbEntity
  8
Layer 01
100
AcDbLine
 10
84.57886158241
 20
55.0
 30
-116.1816311594802
 11
84.57886158241
 21
53.5
 31
-116.1816311594802
  0
LINE
  5
268
330
15E
100
AcDbEntity
  8
Layer 01
100
AcDbLine
 10
84.10302855749026
 20
55.0
 30
-117.9574641844
 11
84.10302855749026
 21
53.5
 31
-117.9574641844
  0
LINE
  5
269
330
15E
100
AcDbEntity
  8
Layer 01
100
AcDbLine
 10
85.87886158241004
 20
55.0
 30
-118.4332972093198
 11
85.87886158241004
 21
53.5
 31
-118.4332972093198
  0
ARC
  5
26A
330
15E
100
AcDbEntity
  8
Layer 01
100
AcDbCircle
 10
85.22886158241
 20
-117.3074641844
 30
-54.25
 40
1.299999999999999
210
0.0
220
-1.0
230
0.0
100
AcDbArc
 50
300.0000000004356
 51
119.9999999982321
  0
LINE
  5
26B
330
15E
100
AcDbEntity
  8
Layer 01
100
AcDbLine
 10
86.35469460732976
 20
55.0
 30
-116.6574641844
 11
86.35469460732976
 21
53.5
 31
-116.6574641844
  0
ARC
  5
26C
330
15E
100
AcDbEntity
  8
Layer 01
100
AcDbCircle
 10
72.5
 20
125.5736835487
 30
-54.25
 40
1.299999999999999
210
0.0
220
-1.0
230
0.0
100
AcDbArc
 50
239.9999999995637
 51
60.00000000176787
  0
LINE
  5
26D
330
15E
100
AcDbEntity
  8
Layer 01
100
AcDbLine
 10
71.84999999999998
 20
55.0
 30
124.4478505237802
 11
71.84999999999998
 21
53.5
 31
124.4478505237802
  0
LINE
  5
26E
330
15E
100
AcDbEntity
  8
Layer 01
100
AcDbLine
 10
73.62583302491976
 20
55.0
 30
124.9236835487
 11
73.62583302491976
 21
53.5
 31
124.9236835487
  0
LINE
  5
26F
330
15E
100
AcDbEntity
  8
Layer 01
100
AcDbLine
 10
73.15000000000002
 20
55.0
 30
126.6995165736197
 11
73.15000000000002
 21
53.5
 31
126.6995165736197
  0
ARC
  5
270
330
15E
100
AcDbEntity
  8
Layer 01
100
AcDbCircle
 10
72.49999999999999
 20
125.5736835487
 30
-54.25
 40
1.299999999999999
210
0.0
220
-1.0
230
0.0
100
AcDbArc
 50
60.00000000176734
 51
239.9999999995643
  0
LINE
  5
271
330
15E
100
AcDbEntity
  8
Layer 01
100
AcDbLine
 10
71.37416697508023
 20
55.0
 30
126.2236835487
 11
71.37416697508023
 21
53.5
 31
126.2236835487
  0
ARC
  5
272
330
15E
100
AcDbEntity
  8
Layer 01
100
AcDbCircle
 10
58.97681324599
 20
132.4640913582
 30
-54.25
 40
1.300000000000006
210
0.0
220
-1.0
230
0.0
100
AcDbArc
 50
239.9999999999984
 51
59.99999999999841
  0
LINE
  5
273
330
15E
100
AcDbEntity
  8
Layer 01
100
AcDbLine
 10
60.10264627090976
 20
55.0
 30
131.8140913582
 11
60.10264627090976
 21
53.5
 31
131.8140913582
  0
ARC
  5
274
330
15E
100
AcDbEntity
  8
Layer 01
100
AcDbCircle
 10
58.97681324599
 20
132.4640913582
 30
-54.25
 40
1.300000000000006
210
0.0
220
-1.0
230
0.0
100
AcDbArc
 50
59.99999999999841
 51
239.9999999999984
  0
LINE
  5
275
330
15E
100
AcDbEntity
  8
Layer 01
100
AcDbLine
 10
57.85098022107024
 20
55.0
 30
133.1140913582
 11
57.85098022107024
 21
53.5
 31
133.1140913582
  0
ARC
  5
276
330
15E
100
AcDbEntity
  8
Layer 01
100
AcDbCircle
 10
-2.0
 20
-60.0
 30
-54.25
 40
1.299999999999997
210
0.0
220
-1.0
230
0.0
100
AcDbArc
 50
0.0
 51
180.0
  0
LINE
  5
277
330
15E
100
AcDbEntity
  8
Layer 01
100
AcDbLine
 10
-2.0
 20
55.0
 30
-58.7
 11
-2.0
 21
53.5
 31
-58.7
  0
ARC
  5
278
330
15E
100
AcDbEntity
  8
Layer 01
100
AcDbCircle
 10
-2.0
 20
-60.0
 30
-54.25
 40
1.299999999999997
210
0.0
220
-1.0
230
0.0
100
AcDbArc
 50
180.0
 51
0.0
  0
LINE
  5
279
330
15E
100
AcDbEntity
  8
Layer 01
100
AcDbLine
 10
-2.0
 20
55.0
 30
-61.3
 11
-2.0
 21
53.5
 31
-61.3
  0
ARC
  5
27A
330
15E
100
AcDbEntity
  8
Layer 01
100
AcDbCircle
 10
28.0
 20
-60.0
 30
-54.25
 40
1.299999999999997
210
0.0
220
-1.0
230
0.0
100
AcDbArc
 50
0.0
 51
180.0
  0
LINE
  5
27B
330
15E
100
AcDbEntity
  8
Layer 01
100
AcDbLine
 10
28.0
 20
55.0
 30
-58.7
 11
28.0
 21
53.5
 31
-58.7
  0
ARC
  5
27C
330
15E
100
AcDbEntity
  8
Layer 01
100
AcDbCircle
 10
28.0
 20
-60.0
 30
-54.25
 40
1.299999999999997
210
0.0
220
-1.0
230
0.0
100
AcDbArc
 50
180.0
 51
0.0
  0
LINE
  5
27D
330
15E
100
AcDbEntity
  8
Layer 01
100
AcDbLine
 10
28.0
 20
55.0
 30
-61.3
 11
28.0
 21
53.5
 31
-61.3
  0
ARC
  5
27E
330
15E
100
AcDbEntity
  8
Layer 01
100
AcDbCircle
 10
-2.0
 20
60.0
 30
-54.25
 40
1.299999999999997
210
0.0
220
-1.0
230
0.0
100
AcDbArc
 50
0.0
 51
180.0
  0
LINE
  5
27F
330
15E
100
AcDbEntity
  8
Layer 01
100
AcDbLine
 10
-2.0
 20
55.0
 30
61.3
 11
-2.0
 21
53.5
 31
61.3
  0
ARC
  5
280
330
15E
100
AcDbEntity
  8
Layer 01
100
AcDbCircle
 10
-2.0
 20
60.0
 30
-54.25
 40
1.299999999999997
210
0.0
220
-1.0
230
0.0
100
AcDbArc
 50
180.0
 51
0.0
  0
LINE
  5
281
330
15E
100
AcDbEntity
  8
Layer 01
100
AcDbLine
 10
-2.0
 20
55.0
 30
58.7
 11
-2.0
 21
53.5
 31
58.7
  0
ARC
  5
282
330
15E
100
AcDbEntity
  8
Layer 01
100
AcDbCircle
 10
-8.0
 20
100.0
 30
-54.25
 40
1.299999999999997
210
0.0
220
-1.0
230
0.0
100
AcDbArc
 50
0.0
 51
180.0
  0
LINE
  5
283
330
15E
100
AcDbEntity
  8
Layer 01
100
AcDbLine
 10
-8.0
 20
55.0
 30
101.3
 11
-8.0
 21
53.5
 31
101.3
  0
ARC
  5
284
330
15E
100
AcDbEntity
  8
Layer 01
100
AcDbCircle
 10
-8.0
 20
100.0
 30
-54.25
 40
1.299999999999997
210
0.0
220
-1.0
230
0.0
100
AcDbArc
 50
180.0
 51
0.0
  0
LINE
  5
285
330
15E
100
AcDbEntity
  8
Layer 01
100
AcDbLine
 10
-8.0
 20
55.0
 30
98.7
 11
-8.0
 21
53.5
 31
98.7
  0
ARC
  5
286
330
15E
100
AcDbEntity
  8
Layer 01
100
AcDbCircle
 10
8.0
 20
100.0
 30
-54.25
 40
1.299999999999997
210
0.0
220
-1.0
230
0.0
100
AcDbArc
 50
0.0
 51
180.0
  0
LINE
  5
287
330
15E
100
AcDbEntity
  8
Layer 01
100
AcDbLine
 10
8.0
 20
55.0
 30
101.3
 11
8.0
 21
53.5
 31
101.3
  0
ARC
  5
288
330
15E
100
AcDbEntity
  8
Layer 01
100
AcDbCircle
 10
8.0
 20
100.0
 30
-54.25
 40
1.299999999999997
210
0.0
220
-1.0
230
0.0
100
AcDbArc
 50
180.0
 51
0.0
  0
LINE
  5
289
330
15E
100
AcDbEntity
  8
Layer 01
100
AcDbLine
 10
8.0
 20
55.0
 30
98.7
 11
8.0
 21
53.5
 31
98.7
  0
ARC
  5
28A
330
15E
100
AcDbEntity
  8
Layer 01
100
AcDbCircle
 10
-17.5
 20
135.0
 30
-54.25
 40
1.300000000000011
210
0.0
220
-1.0
230
0.0
100
AcDbArc
 50
0.0
 51
180.0
  0
LINE
  5
28B
330
15E
100
AcDbEntity
  8
Layer 01
100
AcDbLine
 10
-17.5
 20
55.0
 30
136.3
 11
-17.5
 21
53.5
 31
136.3
  0
ARC
  5
28C
330
15E
100
AcDbEntity
  8
Layer 01
100
AcDbCircle
 10
-17.5
 20
135.0
 30
-54.25
 40
1.300000000000011
210
0.0
220
-1.0
230
0.0
100
AcDbArc
 50
180.0
 51
0.0
  0
LINE
  5
28D
330
15E
100
AcDbEntity
  8
Layer 01
100
AcDbLine
 10
-17.5
 20
55.0
 30
133.7
 11
-17.5
 21
53.5
 31
133.7
  0
ARC
  5
28E
330
15E
100
AcDbEntity
  8
Layer 01
100
AcDbCircle
 10
-51.5
 20
-136.0
 30
-54.25
 40
1.300000000000011
210
0.0
220
-1.0
230
0.0
100
AcDbArc
 50
0.0
 51
180.0
  0
LINE
  5
28F
330
15E
100
AcDbEntity
  8
Layer 01
100
AcDbLine
 10
-51.5
 20
55.0
 30
-134.7
 11
-51.5
 21
53.5
 31
-134.7
  0
ARC
  5
290
330
15E
100
AcDbEntity
  8
Layer 01
100
AcDbCircle
 10
-51.5
 20
-136.0
 30
-54.25
 40
1.300000000000011
210
0.0
220
-1.0
230
0.0
100
AcDbArc
 50
180.0
 51
0.0
  0
LINE
  5
291
330
15E
100
AcDbEntity
  8
Layer 01
100
AcDbLine
 10
-51.5
 20
55.0
 30
-137.3
 11
-51.5
 21
53.5
 31
-137.3
  0
ARC
  5
292
330
15E
100
AcDbEntity
  8
Layer 01
100
AcDbCircle
 10
-7.0
 20
-82.0
 30
-54.25
 40
1.299999999999997
210
0.0
220
-1.0
230
0.0
100
AcDbArc
 50
0.0
 51
180.0
  0
LINE
  5
293
330
15E
100
AcDbEntity
  8
Layer 01
100
AcDbLine
 10
-7.0
 20
55.0
 30
-80.7
 11
-7.0
 21
53.5
 31
-80.7
  0
ARC
  5
294
330
15E
100
AcDbEntity
  8
Layer 01
100
AcDbCircle
 10
-7.0
 20
-82.0
 30
-54.25
 40
1.299999999999997
210
0.0
220
-1.0
230
0.0
100
AcDbArc
 50
180.0
 51
0.0
  0
LINE
  5
295
330
15E
100
AcDbEntity
  8
Layer 01
100
AcDbLine
 10
-7.0
 20
55.0
 30
-83.3
 11
-7.0
 21
53.5
 31
-83.3
  0
ARC
  5
296
330
15E
100
AcDbEntity
  8
Layer 01
100
AcDbCircle
 10
-17.5
 20
121.0
 30
-54.25
 40
1.299999999999997
210
0.0
220
-1.0
230
0.0
100
AcDbArc
 50
0.0
 51
180.0
  0
LINE
  5
297
330
15E
100
AcDbEntity
  8
Layer 01
100
AcDbLine
 10
-17.5
 20
55.0
 30
122.3
 11
-17.5
 21
53.5
 31
122.3
  0
ARC
  5
298
330
15E
100
AcDbEntity
  8
Layer 01
100
AcDbCircle
 10
-17.5
 20
121.0
 30
-54.25
 40
1.299999999999997
210
0.0
220
-1.0
230
0.0
100
AcDbArc
 50
180.0
 51
0.0
  0
LINE
  5
299
330
15E
100
AcDbEntity
  8
Layer 01
100
AcDbLine
 10
-17.5
 20
55.0
 30
119.7
 11
-17.5
 21
53.5
 31
119.7
  0
ARC
  5
29A
330
15E
100
AcDbEntity
  8
Layer 01
100
AcDbCircle
 10
-51.5
 20
-120.0
 30
-54.25
 40
1.299999999999997
210
0.0
220
-1.0
230
0.0
100
AcDbArc
 50
0.0
 51
180.0
  0
LINE
  5
29B
330
15E
100
AcDbEntity
  8
Layer 01
100
AcDbLine
 10
-51.5
 20
55.0
 30
-118.7
 11
-51.5
 21
53.5
 31
-118.7
  0
ARC
  5
29C
330
15E
100
AcDbEntity
  8
Layer 01
100
AcDbCircle
 10
-51.5
 20
-120.0
 30
-54.25
 40
1.299999999999997
210
0.0
220
-1.0
230
0.0
100
AcDbArc
 50
180.0
 51
0.0
  0
LINE
  5
29D
330
15E
100
AcDbEntity
  8
Layer 01
100
AcDbLine
 10
-51.5
 20
55.0
 30
-121.3
 11
-51.5
 21
53.5
 31
-121.3
  0
ARC
  5
29E
330
15E
100
AcDbEntity
  8
Layer 01
100
AcDbCircle
 10
0.0
 20
0.0
 30
-54.25
 40
7.5
210
0.0
220
-1.0
230
0.0
100
AcDbArc
 50
90.0
 51
270.0
  0
LINE
  5
29F
330
15E
100
AcDbEntity
  8
Layer 01
100
AcDbLine
 10
-7.5
 20
55.0
 30
0.0
 11
-7.5
 21
53.5
 31
0.0
  0
ARC
  5
2A0
330
15E
100
AcDbEntity
  8
Layer 01
100
AcDbCircle
 10
0.0
 20
0.0
 30
-54.25
 40
7.5
210
0.0
220
-1.0
230
0.0
100
AcDbArc
 50
270.0
 51
89.99999999999999
  0
LINE
  5
2A1
330
15E
100
AcDbEntity
  8
Layer 01
100
AcDbLine
 10
7.5
 20
55.0
 30
0.0
 11
7.5
 21
53.5
 31
0.0
  0
ARC
  5
2A2
330
15E
100
AcDbEntity
  8
Layer 01
100
AcDbCircle
 10
56.5
 20
-45.94057108884
 30
-130.399986549
 40
3.0
210
1.0
220
0.0
230
0.0
100
AcDbArc
 50
110.712371954978
 51
180.0
  0
ARC
  5
2A3
330
15E
100
AcDbEntity
  8
Layer 01
100
AcDbCircle
 10
-56.5
 20
-23.94057108884
 30
130.399986549
 40
3.0
210
-1.0
220
0.0
230
0.0
100
AcDbArc
 50
290.7123719549779
 51
0.0
  0
LINE
  5
2A4
330
15E
100
AcDbEntity
  8
Layer 01
100
AcDbLine
 10
-130.399986549
 20
57.53051524083506
 30
-27.53751956475307
 11
-130.399986549
 21
55.4389695183137
 31
-26.74667413700668
  0
LINE
  5
2A5
330
15E
100
AcDbEntity
  8
Layer 01
100
AcDbLine
 10
-130.399986549
 20
57.53051524083506
 30
-42.34362261292693
 11
-130.399986549
 21
55.43896951831369
 31
-43.13446804067333
  0
ARC
  5
2A6
330
15E
100
AcDbEntity
  8
Layer 01
100
AcDbCircle
 10
57.0
 20
-40.94057108884
 30
-130.399986549
 40
1.5
210
1.0
220
0.0
230
0.0
100
AcDbArc
 50
290.7123719546399
 51
0.0
  0
LINE
  5
2A7
330
15E
100
AcDbEntity
  8
Layer 01
100
AcDbLine
 10
-136.399986549
 20
58.5
 30
-34.94057108884
 11
-133.149986549
 21
58.5
 31
-34.94057108884
  0
LINE
  5
2A8
330
15E
100
AcDbEntity
  8
Layer 01
100
AcDbLine
 10
-127.649986549
 20
58.5
 30
-34.94057108884
 11
-124.399986549
 21
58.5
 31
-34.94057108884
  0
LINE
  5
2A9
330
15E
100
AcDbEntity
  8
Layer 01
100
AcDbLine
 10
-130.399986549
 20
58.5
 30
-28.94057108884001
 11
-130.399986549
 21
58.5
 31
-32.19057108884
  0
LINE
  5
2AA
330
15E
100
AcDbEntity
  8
Layer 01
100
AcDbLine
 10
-130.399986549
 20
58.5
 30
-37.69057108884
 11
-130.399986549
 21
58.5
 31
-40.94057108884
  0
ARC
  5
2AB
330
15E
100
AcDbEntity
  8
Layer 01
100
AcDbCircle
 10
130.399986549
 20
-34.94057108883999
 30
59.25
 40
2.75
210
0.0
220
1.0
230
0.0
100
AcDbArc
 50
0.0
 51
180.0
  0
LINE
  5
2AC
330
15E
100
AcDbEntity
  8
Layer 01
100
AcDbLine
 10
-130.399986549
 20
58.5
 30
-32.19057108883999
 11
-130.399986549
 21
60.0
 31
-32.19057108883999
  0
LINE
  5
2AD
330
15E
100
AcDbEntity
  8
Layer 01
100
AcDbLine
 10
-136.399986549
 20
60.0
 30
-34.94057108884
 11
-133.149986549
 21
60.0
 31
-34.94057108884
  0
LINE
  5
2AE
330
15E
100
AcDbEntity
  8
Layer 01
100
AcDbLine
 10
-127.649986549
 20
60.0
 30
-34.94057108884
 11
-124.399986549
 21
60.0
 31
-34.94057108884
  0
LINE
  5
2AF
330
15E
100
AcDbEntity
  8
Layer 01
100
AcDbLine
 10
-130.399986549
 20
60.0
 30
-28.94057108884001
 11
-130.399986549
 21
60.0
 31
-32.19057108884
  0
LINE
  5
2B0
330
15E
100
AcDbEntity
  8
Layer 01
100
AcDbLine
 10
-130.399986549
 20
60.0
 30
-37.69057108884
 11
-130.399986549
 21
60.0
 31
-40.94057108884001
  0
ARC
  5
2B1
330
15E
100
AcDbEntity
  8
Layer 01
100
AcDbCircle
 10
130.399986549
 20
-34.94057108884
 30
59.25
 40
2.75
210
0.0
220
1.0
230
0.0
100
AcDbArc
 50
180.0
 51
0.0
  0
LINE
  5
2B2
330
15E
100
AcDbEntity
  8
Layer 01
100
AcDbLine
 10
-130.399986549
 20
58.5
 30
-37.69057108884
 11
-130.399986549
 21
60.0
 31
-37.69057108884
  0
ARC
  5
2B3
330
15E
100
AcDbEntity
  8
Layer 01
100
AcDbCircle
 10
57.0
 20
-40.94057108884
 30
-130.399986549
 40
3.0
210
1.0
220
0.0
230
0.0
100
AcDbArc
 50
290.712371954978
 51
0.0
  0
ARC
  5
2B4
330
15E
100
AcDbEntity
  8
Layer 01
100
AcDbCircle
 10
-57.0
 20
-28.94057108884
 30
130.399986549
 40
3.0
210
-1.0
220
0.0
230
0.0
100
AcDbArc
 50
110.7123719549779
 51
180.0
  0
LINE
  5
2B5
330
15E
100
AcDbEntity
  8
Layer 01
100
AcDbLine
 10
-130.399986549
 20
58.06103048168631
 30
-26.13446804067332
 11
-130.399986549
 21
55.96948475916493
 31
-25.34362261292693
  0
LINE
  5
2B6
330
15E
100
AcDbEntity
  8
Layer 01
100
AcDbLine
 10
-130.399986549
 20
58.06103048168631
 30
-43.74667413700669
 11
-130.399986549
 21
55.96948475916494
 31
-44.53751956475308
  0
ARC
  5
2B7
330
15E
100
AcDbEntity
  8
Layer 01
100
AcDbCircle
 10
56.5
 20
-45.94057108884
 30
-130.399986549
 40
1.5
210
1.0
220
0.0
230
0.0
100
AcDbArc
 50
110.71237195464
 51
180.0
  0
ARC
  5
2B8
330
15E
100
AcDbEntity
  8
Layer 01
100
AcDbCircle
 10
-56.5
 20
-23.94057108884
 30
130.399986549
 40
1.5
210
-1.0
220
0.0
230
0.0
100
AcDbArc
 50
290.7123719546405
 51
0.0
  0
ARC
  5
2B9
330
15E
100
AcDbEntity
  8
Layer 01
100
AcDbCircle
 10
-57.0
 20
-28.94057108884
 30
130.399986549
 40
1.5
210
-1.0
220
0.0
230
0.0
100
AcDbArc
 50
110.7123719546403
 51
180.0
  0
ARC
  5
2BA
330
15E
100
AcDbEntity
  8
Layer 01
100
AcDbCircle
 10
-95.45941546018
 20
-95.45941546018
 30
53.5
 40
11.0
210
0.0
220
1.0
230
0.0
100
AcDbArc
 50
197.5248635251139
 51
239.9999999999989
  0
ARC
  5
2BB
330
15E
100
AcDbEntity
  8
Layer 01
100
AcDbCircle
 10
-56.5
 20
-119.3999865490195
 30
-34.94057108883634
 40
3.0
210
-0.8660254037844289
220
0.0
230
-0.5000000000000168
100
AcDbArc
 50
309.2348071747551
 51
359.9999999998537
  0
ARC
  5
2BC
330
15E
100
AcDbEntity
  8
Layer 01
100
AcDbCircle
 10
-56.5
 20
45.94057108883634
 30
-130.3999865490195
 40
3.0
210
-0.5000000000000168
220
0.0
230
0.8660254037844289
100
AcDbArc
 50
290.7123719549501
 51
359.9999999999494
  0
ARC
  5
2BD
330
15E
100
AcDbEntity
  8
Layer 01
100
AcDbCircle
 10
-95.45941546018
 20
-95.45941546018
 30
53.5
 40
11.0
210
0.0
220
1.0
230
0.0
100
AcDbArc
 50
239.9999999999428
 51
282.6669034090471
  0
ARC
  5
2BE
330
15E
100
AcDbEntity
  8
Layer 01
100
AcDbCircle
 10
56.5
 20
-141.3999865490195
 30
34.94057108883634
 40
3.0
210
0.8660254037844289
220
0.0
230
0.5000000000000168
100
AcDbArc
 50
110.7123719551131
 51
180.000000000045
  0
ARC
  5
2BF
330
15E
100
AcDbEntity
  8
Layer 01
100
AcDbCircle
 10
56.5
 20
23.94057108883634
 30
130.3999865490196
 40
3.0
210
0.5000000000000168
220
0.0
230
-0.8660254037844289
100
AcDbArc
 50
110.7123719549499
 51
179.9999999999497
  0
LINE
  5
2C0
330
15E
100
AcDbEntity
  8
Layer 01
100
AcDbLine
 10
89.04818477479556
 20
57.53051524083465
 30
-99.16094122222367
 11
88.36329254390098
 21
55.43896951831506
 31
-99.55636393609655
  0
LINE
  5
2C1
330
15E
100
AcDbEntity
  8
Layer 01
100
AcDbLine
 10
101.8706461455644
 20
57.53051524083467
 30
-91.75788969813632
 11
102.555538376459
 21
55.43896951831505
 31
-91.36246698426345
  0
ARC
  5
2C2
330
15E
100
AcDbEntity
  8
Layer 01
100
AcDbCircle
 10
-95.45941546018
 20
-95.45941546018
 30
58.5
 40
6.0
210
0.0
220
1.0
230
0.0
100
AcDbArc
 50
59.99999999996832
 51
119.75311181975
  0
ARC
  5
2C3
330
15E
100
AcDbEntity
  8
Layer 01
100
AcDbCircle
 10
-57.0
 20
-124.3999865490195
 30
-34.94057108883634
 40
1.5
210
-0.8660254037844289
220
0.0
230
-0.5000000000000168
100
AcDbArc
 50
110.7123719548919
 51
180.0000000002193
  0
ARC
  5
2C4
330
15E
100
AcDbEntity
  8
Layer 01
100
AcDbCircle
 10
-57.0
 20
40.94057108883634
 30
-130.3999865490195
 40
1.5
210
-0.5000000000000168
220
0.0
230
0.8660254037844289
100
AcDbArc
 50
110.7123719546239
 51
179.9999999998893
  0
LINE
  5
2C5
330
15E
100
AcDbEntity
  8
Layer 01
100
AcDbLine
 10
98.45941546018962
 20
58.5
 30
-100.6555678828945
 11
96.83441546018497
 21
58.5
 31
-97.84098532058711
  0
LINE
  5
2C6
330
15E
100
AcDbEntity
  8
Layer 01
100
AcDbLine
 10
94.08441546018679
 20
58.5
 30
-93.07784559977607
 11
92.45941546018648
 21
58.5
 31
-90.26326303747624
  0
LINE
  5
2C7
330
15E
100
AcDbEntity
  8
Layer 01
100
AcDbLine
 10
90.26326303747396
 20
58.5
 30
-98.45941546018685
 11
93.07784559977752
 21
58.5
 31
-96.8344154601844
  0
LINE
  5
2C8
330
15E
100
AcDbEntity
  8
Layer 01
100
AcDbLine
 10
97.84098532058854
 20
58.5
 30
-94.08441546018624
 11
100.6555678828922
 21
58.5
 31
-92.45941546018375
  0
ARC
  5
2C9
330
15E
100
AcDbEntity
  8
Layer 01
100
AcDbCircle
 10
-95.45941546018
 20
-95.45941546018
 30
59.25
 40
2.75
210
0.0
220
1.0
230
0.0
100
AcDbArc
 50
239.999999999999
 51
59.99999999999899
  0
LINE
  5
2CA
330
15E
100
AcDbEntity
  8
Layer 01
100
AcDbLine
 10
93.07784559977281
 20
58.5
 30
-96.83441546018004
 11
93.07784559977281
 21
60.0
 31
-96.83441546018004
  0
LINE
  5
2CB
330
15E
100
AcDbEntity
  8
Layer 01
100
AcDbLine
 10
98.4594154601896
 20
60.0
 30
-100.6555678828944
 11
96.83441546018497
 21
60.0
 31
-97.84098532058714
  0
LINE
  5
2CC
330
15E
100
AcDbEntity
  8
Layer 01
100
AcDbLine
 10
94.08441546018679
 20
60.0
 30
-93.07784559977608
 11
92.45941546018645
 21
60.0
 31
-90.26326303747621
  0
LINE
  5
2CD
330
15E
100
AcDbEntity
  8
Layer 01
100
AcDbLine
 10
90.26326303747396
 20
60.0
 30
-98.45941546018685
 11
93.07784559977752
 21
60.0
 31
-96.8344154601844
  0
LINE
  5
2CE
330
15E
100
AcDbEntity
  8
Layer 01
100
AcDbLine
 10
97.84098532058854
 20
60.0
 30
-94.08441546018622
 11
100.6555678828922
 21
60.0
 31
-92.45941546018375
  0
ARC
  5
2CF
330
15E
100
AcDbEntity
  8
Layer 01
100
AcDbCircle
 10
-95.45941546018
 20
-95.45941546018
 30
59.25
 40
2.75
210
0.0
220
1.0
230
0.0
100
AcDbArc
 50
59.99999999999899
 51
239.999999999999
  0
LINE
  5
2D0
330
15E
100
AcDbEntity
  8
Layer 01
100
AcDbLine
 10
97.84098532058718
 20
58.5
 30
-94.08441546017995
 11
97.84098532058718
 21
60.0
 31
-94.08441546017995
  0
ARC
  5
2D1
330
15E
100
AcDbEntity
  8
Layer 01
100
AcDbCircle
 10
-95.45941546018
 20
-95.45941546018
 30
60.0
 40
6.0
210
0.0
220
1.0
230
0.0
100
AcDbArc
 50
59.9999999999682
 51
119.7515943221345
  0
ARC
  5
2D2
330
15E
100
AcDbEntity
  8
Layer 01
100
AcDbCircle
 10
-57.0
 20
-124.3999865490195
 30
-34.94057108883634
 40
3.0
210
-0.8660254037844289
220
0.0
230
-0.5000000000000168
100
AcDbArc
 50
110.7123719549112
 51
180.0000000001096
  0
ARC
  5
2D3
330
15E
100
AcDbEntity
  8
Layer 01
100
AcDbCircle
 10
-57.0
 20
40.94057108883634
 30
-130.3999865490195
 40
3.0
210
-0.5000000000000168
220
0.0
230
0.8660254037844289
100
AcDbArc
 50
110.7123719549821
 51
179.9999999999446
  0
ARC
  5
2D4
330
15E
100
AcDbEntity
  8
Layer 01
100
AcDbCircle
 10
-95.45941546018
 20
-95.45941546018
 30
60.0
 40
6.0
210
0.0
220
1.0
230
0.0
100
AcDbArc
 50
0.3697996918431668
 51
59.99999999999892
  0
ARC
  5
2D5
330
15E
100
AcDbEntity
  8
Layer 01
100
AcDbCircle
 10
57.0
 20
-136.3999865490195
 30
34.94057108883634
 40
3.0
210
0.8660254037844289
220
0.0
230
0.5000000000000168
100
AcDbArc
 50
290.7123719550526
 51
339.4248587792833
  0
ARC
  5
2D6
330
15E
100
AcDbEntity
  8
Layer 01
100
AcDbCircle
 10
57.0
 20
28.94057108883634
 30
130.3999865490195
 40
3.0
210
0.5000000000000168
220
0.0
230
-0.8660254037844289
100
AcDbArc
 50
290.7123719549818
 51
359.9999999999442
  0
LINE
  5
2D7
330
15E
100
AcDbEntity
  8
Layer 01
100
AcDbLine
 10
87.83310651212423
 20
58.06103048168651
 30
-99.86246698426343
 11
87.14821428123028
 21
55.96948475916878
 31
-100.257889698136
  0
LINE
  5
2D8
330
15E
100
AcDbEntity
  8
Layer 01
100
AcDbLine
 10
99.8624669842628
 20
58.06103048168998
 30
-103.0857244082346
 11
100.1046674117684
 21
56.77993748837082
 31
-103.5052278542892
  0
LINE
  5
2D9
330
15E
100
AcDbEntity
  8
Layer 01
100
AcDbLine
 10
100.1046674117684
 20
56.77993748837083
 30
-103.5052278542892
 11
100.2578896981347
 21
55.96948475917556
 31
-103.7706166391275
  0
LINE
  5
2DA
330
15E
100
AcDbEntity
  8
Layer 01
100
AcDbLine
 10
103.0857244082358
 20
58.06103048168651
 30
-91.05636393609656
 11
103.7706166391297
 21
55.96948475916878
 31
-90.66094122222403
  0
ARC
  5
2DB
330
15E
100
AcDbEntity
  8
Layer 01
100
AcDbCircle
 10
-95.45941546018
 20
-95.45941546018
 30
55.0
 40
11.0
210
0.0
220
1.0
230
0.0
100
AcDbArc
 50
197.5497344989172
 51
239.9999999999989
  0
ARC
  5
2DC
330
15E
100
AcDbEntity
  8
Layer 01
100
AcDbCircle
 10
-56.5
 20
45.94057108883634
 30
-130.3999865490195
 40
1.5
210
-0.5000000000000168
220
0.0
230
0.8660254037844289
100
AcDbArc
 50
290.7123719544832
 51
359.9999999998988
  0
ARC
  5
2DD
330
15E
100
AcDbEntity
  8
Layer 01
100
AcDbCircle
 10
-95.45941546018
 20
-95.45941546018
 30
55.0
 40
11.0
210
0.0
220
1.0
230
0.0
100
AcDbArc
 50
239.9999999999989
 51
282.787932564329
  0
ARC
  5
2DE
330
15E
100
AcDbEntity
  8
Layer 01
100
AcDbCircle
 10
56.5
 20
23.94057108883634
 30
130.3999865490196
 40
1.5
210
0.5000000000000168
220
0.0
230
-0.8660254037844289
100
AcDbArc
 50
110.7123719544832
 51
179.9999999998996
  0
ARC
  5
2DF
330
15E
100
AcDbEntity
  8
Layer 01
100
AcDbCircle
 10
-95.45941546018
 20
-95.45941546018
 30
58.5
 40
6.0
210
0.0
220
1.0
230
0.0
100
AcDbArc
 50
0.3744221879911533
 51
59.99999999999892
  0
ARC
  5
2E0
330
15E
100
AcDbEntity
  8
Layer 01
100
AcDbCircle
 10
57.0
 20
28.94057108883634
 30
130.3999865490195
 40
1.5
210
0.5000000000000168
220
0.0
230
-0.8660254037844289
100
AcDbArc
 50
290.7123719546237
 51
359.9999999998885
  0
ARC
  5
2E1
330
15E
100
AcDbEntity
  8
Layer 01
100
AcDbCircle
 10
-34.94057108884
 20
130.399986549
 30
53.5
 40
11.00000000000001
210
0.0
220
1.0
230
0.0
100
AcDbArc
 50
351.91121550194
 51
120.0000000000011
  0
ARC
  5
2E2
330
15E
100
AcDbEntity
  8
Layer 01
100
AcDbCircle
 10
-56.5
 20
45.94057108883099
 30
-130.3999865490024
 40
3.0
210
-0.5000000000000168
220
0.0
230
-0.8660254037844289
100
AcDbArc
 50
290.7123719549962
 51
0.0000000003498441
  0
ARC
  5
2E3
330
15E
100
AcDbEntity
  8
Layer 01
100
AcDbCircle
 10
-34.94057108884
 20
130.399986549
 30
53.5
 40
11.0
210
0.0
220
1.0
230
0.0
100
AcDbArc
 50
120.0000000000011
 51
248.0603076923089
  0
ARC
  5
2E4
330
15E
100
AcDbEntity
  8
Layer 01
100
AcDbCircle
 10
56.5
 20
23.940571088831
 30
130.3999865490024
 40
3.0
210
0.5000000000000168
220
0.0
230
0.8660254037844289
100
AcDbArc
 50
110.7123719549962
 51
180.0000000003497
  0
LINE
  5
2E5
330
15E
100
AcDbEntity
  8
Layer 01
100
AcDbLine
 10
41.35180177422416
 20
57.53051524083548
 30
126.6984607869565
 11
42.03669400511973
 21
55.4389695183128
 31
126.303038073083
  0
LINE
  5
2E6
330
15E
100
AcDbEntity
  8
Layer 01
100
AcDbLine
 10
38.6420968508835
 20
57.53051524083548
 30
136.8112172343842
 11
39.03751956475696
 21
55.4389695183128
 31
137.4961094652797
  0
LINE
  5
2E7
330
15E
100
AcDbEntity
  8
Layer 01
100
AcDbLine
 10
28.52934040345581
 20
57.53051524083548
 30
134.1015123110435
 11
27.84444817256024
 21
55.43896951831279
 31
134.496935024917
  0
LINE
  5
2E8
330
15E
100
AcDbEntity
  8
Layer 01
100
AcDbLine
 10
31.23904532679648
 20
57.53051524083548
 30
123.9887558636158
 11
30.84362261292302
 21
55.43896951831279
 31
123.3038636327203
  0
ARC
  5
2E9
330
15E
100
AcDbEntity
  8
Layer 01
100
AcDbCircle
 10
-34.94057108884
 20
130.399986549
 30
58.5
 40
6.0
210
0.0
220
1.0
230
0.0
100
AcDbArc
 50
300.0000000000011
 51
120.0000000000011
  0
ARC
  5
2EA
330
15E
100
AcDbEntity
  8
Layer 01
100
AcDbCircle
 10
57.0
 20
124.3999865490024
 30
-34.94057108883098
 40
1.5
210
0.8660254037844289
220
0.0
230
-0.5000000000000168
100
AcDbArc
 50
290.7123719546574
 51
0.0000000002192971
  0
ARC
  5
2EB
330
15E
100
AcDbEntity
  8
Layer 01
100
AcDbCircle
 10
-57.0
 20
40.94057108883099
 30
-130.3999865490024
 40
1.5
210
-0.5000000000000168
220
0.0
230
-0.8660254037844289
100
AcDbArc
 50
110.7123719546574
 51
180.0000000002193
  0
LINE
  5
2EC
330
15E
100
AcDbEntity
  8
Layer 01
100
AcDbLine
 10
37.94057108883723
 20
58.5
 30
135.5961389717016
 11
36.31557108883689
 21
58.5
 31
132.7815564094017
  0
LINE
  5
2ED
330
15E
100
AcDbEntity
  8
Layer 01
100
AcDbLine
 10
33.56557108884308
 20
58.5
 30
128.0184166885983
 11
31.94057108884276
 21
58.5
 31
125.2038341262984
  0
LINE
  5
2EE
330
15E
100
AcDbEntity
  8
Layer 01
100
AcDbLine
 10
40.13672351154156
 20
58.5
 30
127.3999865490028
 11
37.3221409492418
 21
58.5
 31
129.024986549003
  0
LINE
  5
2EF
330
15E
100
AcDbEntity
  8
Layer 01
100
AcDbLine
 10
32.55900122843823
 20
58.5
 30
131.7749865489969
 11
29.74441866613844
 21
58.5
 31
133.3999865489972
  0
ARC
  5
2F0
330
15E
100
AcDbEntity
  8
Layer 01
100
AcDbCircle
 10
-34.94057108884
 20
130.399986549
 30
59.25
 40
2.749999999999994
210
0.0
220
1.0
230
0.0
100
AcDbArc
 50
120.0000000000008
 51
300.0000000000008
  0
LINE
  5
2F1
330
15E
100
AcDbEntity
  8
Layer 01
100
AcDbLine
 10
37.32214094924718
 20
58.5
 30
129.024986549
 11
37.32214094924718
 21
60.0
 31
129.024986549
  0
LINE
  5
2F2
330
15E
100
AcDbEntity
  8
Layer 01
100
AcDbLine
 10
37.9405710888372
 20
60.0
 30
135.5961389717016
 11
36.31557108883689
 21
60.0
 31
132.7815564094017
  0
LINE
  5
2F3
330
15E
100
AcDbEntity
  8
Layer 01
100
AcDbLine
 10
33.56557108884306
 20
60.0
 30
128.0184166885982
 11
31.94057108884276
 21
60.0
 31
125.2038341262984
  0
LINE
  5
2F4
330
15E
100
AcDbEntity
  8
Layer 01
100
AcDbLine
 10
40.13672351154156
 20
60.0
 30
127.3999865490028
 11
37.3221409492418
 21
60.0
 31
129.024986549003
  0
LINE
  5
2F5
330
15E
100
AcDbEntity
  8
Layer 01
100
AcDbLine
 10
32.55900122843823
 20
60.0
 30
131.7749865489969
 11
29.74441866613844
 21
60.0
 31
133.3999865489972
  0
ARC
  5
2F6
330
15E
100
AcDbEntity
  8
Layer 01
100
AcDbCircle
 10
-34.94057108883999
 20
130.399986549
 30
59.25
 40
2.750000000000008
210
0.0
220
1.0
230
0.0
100
AcDbArc
 50
300.0000000000013
 51
120.0000000000013
  0
LINE
  5
2F7
330
15E
100
AcDbEntity
  8
Layer 01
100
AcDbLine
 10
32.55900122843281
 20
58.5
 30
131.7749865490001
 11
32.55900122843281
 21
60.0
 31
131.7749865490001
  0
ARC
  5
2F8
330
15E
100
AcDbEntity
  8
Layer 01
100
AcDbCircle
 10
-34.94057108884
 20
130.399986549
 30
60.0
 40
6.0
210
0.0
220
1.0
230
0.0
100
AcDbArc
 50
300.0000000000011
 51
120.0000000000011
  0
ARC
  5
2F9
330
15E
100
AcDbEntity
  8
Layer 01
100
AcDbCircle
 10
-57.0
 20
40.94057108883099
 30
-130.3999865490024
 40
3.0
210
-0.5000000000000168
220
0.0
230
-0.8660254037844289
100
AcDbArc
 50
110.7123719549115
 51
180.0000000001096
  0
ARC
  5
2FA
330
15E
100
AcDbEntity
  8
Layer 01
100
AcDbCircle
 10
-34.94057108884
 20
130.399986549
 30
60.0
 40
6.0
210
0.0
220
1.0
230
0.0
100
AcDbArc
 50
120.0000000000011
 51
300.0000000000011
  0
ARC
  5
2FB
330
15E
100
AcDbEntity
  8
Layer 01
100
AcDbCircle
 10
-57.0
 20
136.3999865490024
 30
34.94057108883099
 40
3.0
210
-0.8660254037844289
220
0.0
230
0.5000000000000168
100
AcDbArc
 50
110.7123719546187
 51
180.0000000001102
  0
ARC
  5
2FC
330
15E
100
AcDbEntity
  8
Layer 01
100
AcDbCircle
 10
57.0
 20
28.940571088831
 30
130.3999865490024
 40
3.0
210
0.5000000000000168
220
0.0
230
0.8660254037844289
100
AcDbArc
 50
290.7123719549112
 51
0.0000000001096486
  0
LINE
  5
2FD
330
15E
100
AcDbEntity
  8
Layer 01
100
AcDbLine
 10
30.53751956475859
 20
58.06103048169738
 30
122.7736776009478
 11
30.14209685088513
 21
55.96948475917468
 31
122.0887853700522
  0
LINE
  5
2FE
330
15E
100
AcDbEntity
  8
Layer 01
100
AcDbLine
 10
42.5668800368969
 20
58.06103048168304
 30
125.9969350249159
 11
43.25177226779248
 21
55.96948475916035
 31
125.6015123110424
  0
LINE
  5
2FF
330
15E
100
AcDbEntity
  8
Layer 01
100
AcDbLine
 10
27.31426214078309
 20
58.06103048168305
 30
134.8030380730841
 11
26.62936990988751
 21
55.96948475916034
 31
135.1984607869576
  0
ARC
  5
300
330
15E
100
AcDbEntity
  8
Layer 01
100
AcDbCircle
 10
-34.94057108884
 20
130.399986549
 30
55.0
 40
11.00000000000001
210
0.0
220
1.0
230
0.0
100
AcDbArc
 50
351.9059954449402
 51
120.0000000000011
  0
ARC
  5
301
330
15E
100
AcDbEntity
  8
Layer 01
100
AcDbCircle
 10
-56.5
 20
45.94057108883099
 30
-130.3999865490024
 40
1.5
210
-0.5000000000000168
220
0.0
230
-0.8660254037844289
100
AcDbArc
 50
290.7123719548279
 51
0.0000000006996881
  0
ARC
  5
302
330
15E
100
AcDbEntity
  8
Layer 01
100
AcDbCircle
 10
-34.94057108884
 20
130.399986549
 30
55.0
 40
11.0
210
0.0
220
1.0
230
0.0
100
AcDbArc
 50
119.9999999999079
 51
248.0674078936314
  0
ARC
  5
303
330
15E
100
AcDbEntity
  8
Layer 01
100
AcDbCircle
 10
-56.5
 20
141.3999865490024
 30
34.94057108883099
 40
1.5
210
-0.8660254037844289
220
0.0
230
0.5000000000000168
100
AcDbArc
 50
290.7123719554126
 51
0.0000000023536444
  0
ARC
  5
304
330
15E
100
AcDbEntity
  8
Layer 01
100
AcDbCircle
 10
56.5
 20
23.940571088831
 30
130.3999865490024
 40
1.5
210
0.5000000000000168
220
0.0
230
0.8660254037844289
100
AcDbArc
 50
110.7123719548277
 51
180.0000000006994
  0
ARC
  5
305
330
15E
100
AcDbEntity
  8
Layer 01
100
AcDbCircle
 10
-34.94057108884
 20
130.399986549
 30
58.5
 40
6.0
210
0.0
220
1.0
230
0.0
100
AcDbArc
 50
120.0000000000011
 51
300.0000000000011
  0
ARC
  5
306
330
15E
100
AcDbEntity
  8
Layer 01
100
AcDbCircle
 10
57.0
 20
28.940571088831
 30
130.3999865490024
 40
1.5
210
0.5000000000000168
220
0.0
230
0.8660254037844289
100
AcDbArc
 50
290.7123719546576
 51
0.0000000002192971
  0
ENDBLK
  5
308
330
15E
100
AcDbEntity
  8
0
100
AcDbBlockEnd
  0
BLOCK
  5
37C
330
30A
100
AcDbEntity
  8
0
100
AcDbBlockBegin
  2
D8107219_COP-ROSONE-1100
 70
     0
 10
0.0
 20
0.0
 30
0.0
  3
D8107219_COP-ROSONE-1100
  1

  0
SPLINE
  5
30B
330
30A
100
AcDbEntity
  8
Layer 01
100
AcDbSpline
210
0.0
220
0.0
230
1.0
 70
    24
 71
     2
 72
     6
 73
     3
 74
     0
 42
0.000000001
 43
0.0000000001
 40
-3.936650586199988
 40
-3.936650586199988
 40
-3.936650586199988
 40
0.0
 40
0.0
 40
0.0
 10
-4.0
 20
0.8
 30
-155.4504567971
 10
-4.0
 20
0.8
 30
-157.4187820902
 10
-4.0
 20
0.8
 30
-159.3871073833
  0
SPLINE
  5
30C
330
30A
100
AcDbEntity
  8
Layer 01
100
AcDbSpline
210
0.0
220
0.0
230
1.0
 70
    24
 71
     2
 72
     6
 73
     3
 74
     0
 42
0.000000001
 43
0.0000000001
 40
-0.5
 40
-0.5
 40
-0.5
 40
0.0
 40
0.0
 40
0.0
 10
-3.5
 20
0.8
 30
-155.4504567971
 10
-3.75
 20
0.8
 30
-155.4504567971
 10
-4.0
 20
0.8
 30
-155.4504567971
  0
SPLINE
  5
30D
330
30A
100
AcDbEntity
  8
Layer 01
100
AcDbSpline
210
0.0
220
0.0
230
1.0
 70
    24
 71
     2
 72
     6
 73
     3
 74
     0
 42
0.000000001
 43
0.0000000001
 40
-7.0
 40
-7.0
 40
-7.0
 40
0.0
 40
0.0
 40
0.0
 10
3.5
 20
0.8
 30
-155.4504567971
 10
0.0
 20
0.8
 30
-155.4504567971
 10
-3.5
 20
0.8
 30
-155.4504567971
  0
SPLINE
  5
30E
330
30A
100
AcDbEntity
  8
Layer 01
100
AcDbSpline
210
0.0
220
0.0
230
1.0
 70
    24
 71
     2
 72
     6
 73
     3
 74
     0
 42
0.000000001
 43
0.0000000001
 40
-0.5
 40
-0.5
 40
-0.5
 40
0.0
 40
0.0
 40
0.0
 10
4.0
 20
0.8
 30
-155.4504567971
 10
3.75
 20
0.8
 30
-155.4504567971
 10
3.5
 20
0.8
 30
-155.4504567971
  0
SPLINE
  5
30F
330
30A
100
AcDbEntity
  8
Layer 01
100
AcDbSpline
210
0.0
220
0.0
230
1.0
 70
    24
 71
     2
 72
     6
 73
     3
 74
     0
 42
0.000000001
 43
0.0000000001
 40
-3.936650586199988
 40
-3.936650586199988
 40
-3.936650586199988
 40
0.0
 40
0.0
 40
0.0
 10
4.0
 20
0.8
 30
-159.3871073833
 10
4.0
 20
0.8
 30
-157.4187820902
 10
4.0
 20
0.8
 30
-155.4504567971
  0
ARC
  5
310
330
30A
100
AcDbEntity
  8
Layer 01
100
AcDbCircle
 10
-0.0000000000000298
 20
-0.0000000351778908
 30
0.8
 40
161.4999999647972
210
0.0
220
1.0
230
0.0
100
AcDbArc
 50
272.1558357803322
 51
267.8441642196679
  0
ARC
  5
311
330
30A
100
AcDbEntity
  8
Layer 01
100
AcDbCircle
 10
5.999999999904899
 20
-159.3871073833
 30
0.8
 40
1.999999999904899
210
0.0
220
1.0
230
0.0
100
AcDbArc
 50
180.0
 51
272.1558357826946
  0
SPLINE
  5
312
330
30A
100
AcDbEntity
  8
Layer 01
100
AcDbSpline
210
0.0
220
0.0
230
1.0
 70
    24
 71
     2
 72
     6
 73
     3
 74
     0
 42
0.000000001
 43
0.0000000001
 40
-0.8
 40
-0.8
 40
-0.8
 40
0.0
 40
0.0
 40
0.0
 10
-6.075235109718006
 20
0.0
 30
-161.3856918018
 10
-6.075235109718006
 20
0.4
 30
-161.3856918018
 10
-6.075235109718006
 20
0.8
 30
-161.3856918018
  0
ARC
  5
313
330
30A
100
AcDbEntity
  8
Layer 01
100
AcDbCircle
 10
5.999999999904899
 20
-159.3871073833
 30
0.0
 40
1.999999999904899
210
0.0
220
1.0
230
0.0
100
AcDbArc
 50
180.0
 51
272.1558357826946
  0
SPLINE
  5
314
330
30A
100
AcDbEntity
  8
Layer 01
100
AcDbSpline
210
0.0
220
0.0
230
1.0
 70
    24
 71
     2
 72
     6
 73
     3
 74
     0
 42
0.000000001
 43
0.0000000001
 40
-0.8
 40
-0.8
 40
-0.8
 40
0.0
 40
0.0
 40
0.0
 10
-4.0
 20
0.8
 30
-159.3871073833
 10
-4.0
 20
0.4
 30
-159.3871073833
 10
-4.0
 20
0.0
 30
-159.3871073833
  0
SPLINE
  5
315
330
30A
100
AcDbEntity
  8
Layer 01
100
AcDbSpline
210
0.0
220
0.0
230
1.0
 70
    24
 71
     2
 72
     6
 73
     3
 74
     0
 42
0.000000001
 43
0.0000000001
 40
-0.8
 40
-0.8
 40
-0.8
 40
0.0
 40
0.0
 40
0.0
 10
6.075235109718022
 20
0.0
 30
-161.3856918018
 10
6.075235109718022
 20
0.4
 30
-161.3856918018
 10
6.075235109718022
 20
0.8
 30
-161.3856918018
  0
ARC
  5
316
330
30A
100
AcDbEntity
  8
Layer 01
100
AcDbCircle
 10
-5.999999999904882
 20
-159.3871073833
 30
0.8
 40
1.999999999904882
210
0.0
220
1.0
230
0.0
100
AcDbArc
 50
267.8441642173041
 51
0.0
  0
SPLINE
  5
317
330
30A
100
AcDbEntity
  8
Layer 01
100
AcDbSpline
210
0.0
220
0.0
230
1.0
 70
    24
 71
     2
 72
     6
 73
     3
 74
     0
 42
0.000000001
 43
0.0000000001
 40
-0.8
 40
-0.8
 40
-0.8
 40
0.0
 40
0.0
 40
0.0
 10
4.0
 20
0.0
 30
-159.3871073833
 10
4.0
 20
0.4
 30
-159.3871073833
 10
4.0
 20
0.8
 30
-159.3871073833
  0
ARC
  5
318
330
30A
100
AcDbEntity
  8
Layer 01
100
AcDbCircle
 10
-5.999999999904882
 20
-159.3871073833
 30
0.0
 40
1.999999999904882
210
0.0
220
1.0
230
0.0
100
AcDbArc
 50
267.8441642173041
 51
0.0
  0
SPLINE
  5
319
330
30A
100
AcDbEntity
  8
Layer 01
100
AcDbSpline
210
0.0
220
0.0
230
1.0
 70
    24
 71
     2
 72
     6
 73
     3
 74
     0
 42
0.000000001
 43
0.0000000001
 40
-0.8
 40
-0.8
 40
-0.8
 40
0.0
 40
0.0
 40
0.0
 10
4.0
 20
0.0
 30
-155.4504567971
 10
4.0
 20
0.4
 30
-155.4504567971
 10
4.0
 20
0.8
 30
-155.4504567971
  0
SPLINE
  5
31A
330
30A
100
AcDbEntity
  8
Layer 01
100
AcDbSpline
210
0.0
220
0.0
230
1.0
 70
    24
 71
     2
 72
     6
 73
     3
 74
     0
 42
0.000000001
 43
0.0000000001
 40
-3.936650586199988
 40
-3.936650586199988
 40
-3.936650586199988
 40
0.0
 40
0.0
 40
0.0
 10
4.0
 20
0.0
 30
-159.3871073833
 10
4.0
 20
0.0
 30
-157.4187820902
 10
4.0
 20
0.0
 30
-155.4504567971
  0
SPLINE
  5
31B
330
30A
100
AcDbEntity
  8
Layer 01
100
AcDbSpline
210
0.0
220
0.0
230
1.0
 70
    24
 71
     2
 72
     6
 73
     3
 74
     0
 42
0.000000001
 43
0.0000000001
 40
-0.8
 40
-0.8
 40
-0.8
 40
0.0
 40
0.0
 40
0.0
 10
3.5
 20
0.0
 30
-155.4504567971
 10
3.5
 20
0.4
 30
-155.4504567971
 10
3.5
 20
0.8
 30
-155.4504567971
  0
SPLINE
  5
31C
330
30A
100
AcDbEntity
  8
Layer 01
100
AcDbSpline
210
0.0
220
0.0
230
1.0
 70
    24
 71
     2
 72
     6
 73
     3
 74
     0
 42
0.000000001
 43
0.0000000001
 40
-0.5
 40
-0.5
 40
-0.5
 40
0.0
 40
0.0
 40
0.0
 10
4.0
 20
0.0
 30
-155.4504567971
 10
3.75
 20
0.0
 30
-155.4504567971
 10
3.5
 20
0.0
 30
-155.4504567971
  0
SPLINE
  5
31D
330
30A
100
AcDbEntity
  8
Layer 01
100
AcDbSpline
210
0.0
220
0.0
230
1.0
 70
    24
 71
     2
 72
     6
 73
     3
 74
     0
 42
0.000000001
 43
0.0000000001
 40
-0.7999999999761457
 40
-0.7999999999761457
 40
-0.7999999999761457
 40
0.0
 40
0.0
 40
0.0
 10
3.5
 20
-7.947334331104999
 30
-152.2477018278
 10
3.5
 20
-8.147334331105
 30
-152.5941119893
 10
3.5
 20
-8.347334331105
 30
-152.9405221508
  0
SPLINE
  5
31E
330
30A
100
AcDbEntity
  8
Layer 01
100
AcDbSpline
210
0.0
220
0.0
230
1.0
 70
    24
 71
     2
 72
     6
 73
     3
 74
     0
 42
0.000000001
 43
0.0000000001
 40
-7.791150584763811
 40
-7.791150584763811
 40
-7.791150584763811
 40
0.0
 40
0.0
 40
0.0
 10
3.5
 20
-1.200000000000002
 30
-156.1432771202
 10
3.5
 20
-4.5736671655525
 30
-154.195489474
 10
3.5
 20
-7.947334331104999
 30
-152.2477018278
  0
SPLINE
  5
31F
330
30A
100
AcDbEntity
  8
Layer 01
100
AcDbSpline
210
0.0
220
0.0
230
1.0
 70
    24
 71
     2
 72
     6
 73
     3
 74
     0
 42
0.000000001
 43
0.0000000001
 40
0.0
 40
0.0
 40
0.0
 40
0.7999999999761459
 40
0.7999999999761459
 40
0.7999999999761459
 10
3.5
 20
-1.200000000000002
 30
-156.1432771202
 10
3.5
 20
-1.400000000000001
 30
-156.4896872817
 10
3.5
 20
-1.6
 30
-156.8360974432
  0
SPLINE
  5
320
330
30A
100
AcDbEntity
  8
Layer 01
100
AcDbSpline
210
0.0
220
0.0
230
1.0
 70
    24
 71
     2
 72
     6
 73
     3
 74
     0
 42
0.000000001
 43
0.0000000001
 40
-7.791150584763811
 40
-7.791150584763811
 40
-7.791150584763811
 40
0.0
 40
0.0
 40
0.0
 10
3.5
 20
-8.347334331105
 30
-152.9405221508
 10
3.5
 20
-4.9736671655525
 30
-154.888309797
 10
3.5
 20
-1.6
 30
-156.8360974432
  0
ARC
  5
321
330
30A
100
AcDbEntity
  8
Layer 01
100
AcDbCircle
 10
-1.500000000019213
 20
-69.2412574907862
 30
-136.6240446161973
 40
1.999999999996642
210
9.497402864155890E-13
220
0.5000000000000168
230
0.866025403784429
100
AcDbArc
 50
89.99999999999807
 51
180.000000000094
  0
SPLINE
  5
322
330
30A
100
AcDbEntity
  8
Layer 01
100
AcDbSpline
210
0.0
220
0.0
230
1.0
 70
    24
 71
     2
 72
     6
 73
     3
 74
     0
 42
0.000000001
 43
0.0000000001
 40
-0.799999999974146
 40
-0.799999999974146
 40
-0.799999999974146
 40
0.0
 40
0.0
 40
0.0
 10
1.5
 20
-9.679385138674
 30
-151.2477018278
 10
1.5
 20
-9.879385138672
 30
-151.5941119893
 10
1.5
 20
-10.07938513867
 30
-151.9405221508
  0
ARC
  5
323
330
30A
100
AcDbEntity
  8
Layer 01
100
AcDbCircle
 10
1.499999999999147
 20
-69.24125749079512
 30
135.8240446162257
 40
2.000000000000117
210
4.602471238048684E-14
220
-0.5000000000000024
230
-0.8660254037844374
100
AcDbArc
 50
0.0000000000056996
 51
90.0000000000011
  0
SPLINE
  5
324
330
30A
100
AcDbEntity
  8
Layer 01
100
AcDbSpline
210
0.0
220
0.0
230
1.0
 70
    24
 71
     2
 72
     6
 73
     3
 74
     0
 42
0.000000001
 43
0.0000000001
 40
-7.0
 40
-7.0
 40
-7.0
 40
0.0
 40
0.0
 40
0.0
 10
-3.5
 20
-1.6
 30
-156.8360974432
 10
0.0
 20
-1.6
 30
-156.8360974432
 10
3.5
 20
-1.6
 30
-156.8360974432
  0
SPLINE
  5
325
330
30A
100
AcDbEntity
  8
Layer 01
100
AcDbSpline
210
0.0
220
0.0
230
1.0
 70
    24
 71
     2
 72
     6
 73
     3
 74
     0
 42
0.000000001
 43
0.0000000001
 40
-7.791150584763811
 40
-7.791150584763811
 40
-7.791150584763811
 40
0.0
 40
0.0
 40
0.0
 10
-3.5
 20
-8.347334331105
 30
-152.9405221508
 10
-3.5
 20
-4.9736671655525
 30
-154.888309797
 10
-3.5
 20
-1.6
 30
-156.8360974432
  0
SPLINE
  5
326
330
30A
100
AcDbEntity
  8
Layer 01
100
AcDbSpline
210
0.0
220
0.0
230
1.0
 70
    24
 71
     2
 72
     6
 73
     3
 74
     0
 42
0.000000001
 43
0.0000000001
 40
-3.0
 40
-3.0
 40
-3.0
 40
0.0
 40
0.0
 40
0.0
 10
1.5
 20
-10.07938513867
 30
-151.9405221508
 10
0.0
 20
-10.07938513867
 30
-151.9405221508
 10
-1.5
 20
-10.07938513867
 30
-151.9405221508
  0
ARC
  5
327
330
30A
100
AcDbEntity
  8
Layer 01
100
AcDbCircle
 10
0.0
 20
-71.24125749078385
 30
-136.6240446162005
 40
1.5
210
0.0
220
0.5000000000000168
230
0.8660254037844289
100
AcDbArc
 50
180.0
 51
0.0
  0
SPLINE
  5
328
330
30A
100
AcDbEntity
  8
Layer 01
100
AcDbSpline
210
0.0
220
0.0
230
1.0
 70
    24
 71
     2
 72
     6
 73
     3
 74
     0
 42
0.000000001
 43
0.0000000001
 40
0.0
 40
0.0
 40
0.0
 40
0.7999999999761459
 40
0.7999999999761459
 40
0.7999999999761459
 10
-1.5
 20
-6.615283523536
 30
-153.9405221508
 10
-1.5
 20
-6.415283523535999
 30
-153.5941119893
 10
-1.5
 20
-6.215283523535999
 30
-153.2477018278
  0
ARC
  5
329
330
30A
100
AcDbEntity
  8
Layer 01
100
AcDbCircle
 10
0.0000000000001038
 20
-71.2412574907976
 30
135.8240446162243
 40
1.5
210
-8.352670531853141E-15
220
-0.5000000000000168
230
-0.866025403784429
100
AcDbArc
 50
179.9999999999989
 51
359.9999999999989
  0
SPLINE
  5
32A
330
30A
100
AcDbEntity
  8
Layer 01
100
AcDbSpline
210
0.0
220
0.0
230
1.0
 70
    24
 71
     2
 72
     6
 73
     3
 74
     0
 42
0.000000001
 43
0.0000000001
 40
0.0
 40
0.0
 40
0.0
 40
0.7999999999761459
 40
0.7999999999761459
 40
0.7999999999761459
 10
1.5
 20
-6.215283523535999
 30
-153.2477018278
 10
1.5
 20
-6.415283523535999
 30
-153.5941119893
 10
1.5
 20
-6.615283523536
 30
-153.9405221508
  0
ARC
  5
32B
330
30A
100
AcDbEntity
  8
Layer 01
100
AcDbCircle
 10
0.0
 20
-71.24125749078385
 30
-136.6240446162005
 40
1.5
210
0.0
220
0.5000000000000168
230
0.8660254037844289
100
AcDbArc
 50
0.0
 51
180.0
  0
ARC
  5
32C
330
30A
100
AcDbEntity
  8
Layer 01
100
AcDbCircle
 10
-0.0000000000001038
 20
-71.2412574907976
 30
135.8240446162243
 40
1.5
210
8.352670531853141E-15
220
-0.5000000000000168
230
-0.866025403784429
100
AcDbArc
 50
0.0000000000010856
 51
180.0000000000011
  0
SPLINE
  5
32D
330
30A
100
AcDbEntity
  8
Layer 01
100
AcDbSpline
210
0.0
220
0.0
230
1.0
 70
    24
 71
     2
 72
     6
 73
     3
 74
     0
 42
0.000000001
 43
0.0000000001
 40
0.0
 40
0.0
 40
0.0
 40
3.0
 40
3.0
 40
3.0
 10
1.5
 20
-9.679385138674
 30
-151.2477018278
 10
0.0
 20
-9.679385138674
 30
-151.2477018278
 10
-1.5
 20
-9.679385138674
 30
-151.2477018278
  0
SPLINE
  5
32E
330
30A
100
AcDbEntity
  8
Layer 01
100
AcDbSpline
210
0.0
220
0.0
230
1.0
 70
    24
 71
     2
 72
     6
 73
     3
 74
     0
 42
0.000000001
 43
0.0000000001
 40
0.0
 40
0.0
 40
0.0
 40
7.791150584763811
 40
7.791150584763811
 40
7.791150584763811
 10
-3.5
 20
-7.947334331104999
 30
-152.2477018278
 10
-3.5
 20
-4.5736671655525
 30
-154.195489474
 10
-3.5
 20
-1.200000000000002
 30
-156.1432771202
  0
SPLINE
  5
32F
330
30A
100
AcDbEntity
  8
Layer 01
100
AcDbSpline
210
0.0
220
0.0
230
1.0
 70
    24
 71
     2
 72
     6
 73
     3
 74
     0
 42
0.000000001
 43
0.0000000001
 40
0.0
 40
0.0
 40
0.0
 40
7.0
 40
7.0
 40
7.0
 10
-3.5
 20
-1.200000000000002
 30
-156.1432771202
 10
0.0
 20
-1.200000000000002
 30
-156.1432771202
 10
3.5
 20
-1.200000000000002
 30
-156.1432771202
  0
SPLINE
  5
330
330
30A
100
AcDbEntity
  8
Layer 01
100
AcDbSpline
210
0.0
220
0.0
230
1.0
 70
    24
 71
     2
 72
     6
 73
     3
 74
     0
 42
0.000000001
 43
0.0000000001
 40
-0.799999999974146
 40
-0.799999999974146
 40
-0.799999999974146
 40
0.0
 40
0.0
 40
0.0
 10
-1.5
 20
-9.679385138674
 30
-151.2477018278
 10
-1.5
 20
-9.879385138672
 30
-151.5941119893
 10
-1.5
 20
-10.07938513867
 30
-151.9405221508
  0
ARC
  5
331
330
30A
100
AcDbEntity
  8
Layer 01
100
AcDbCircle
 10
-1.500000000019238
 20
-69.24125749078598
 30
136.6240446161974
 40
1.999999999996645
210
9.514056209525279E-13
220
-0.5000000000000153
230
-0.8660254037844298
100
AcDbArc
 50
89.9999999999983
 51
180.0000000000944
  0
SPLINE
  5
332
330
30A
100
AcDbEntity
  8
Layer 01
100
AcDbSpline
210
0.0
220
0.0
230
1.0
 70
    24
 71
     2
 72
     6
 73
     3
 74
     0
 42
0.000000001
 43
0.0000000001
 40
-0.7999999999761457
 40
-0.7999999999761457
 40
-0.7999999999761457
 40
0.0
 40
0.0
 40
0.0
 10
-3.5
 20
-7.947334331104999
 30
-152.2477018278
 10
-3.5
 20
-8.147334331105
 30
-152.5941119893
 10
-3.5
 20
-8.347334331105
 30
-152.9405221508
  0
ARC
  5
333
330
30A
100
AcDbEntity
  8
Layer 01
100
AcDbCircle
 10
-1.499999999999264
 20
-69.24125749079741
 30
135.8240446162246
 40
2.000000000000136
210
-3.774758283725554E-14
220
-0.5000000000000168
230
-0.866025403784429
100
AcDbArc
 50
90.00000000000016
 51
179.9999999999959
  0
SPLINE
  5
334
330
30A
100
AcDbEntity
  8
Layer 01
100
AcDbSpline
210
0.0
220
0.0
230
1.0
 70
    24
 71
     2
 72
     6
 73
     3
 74
     0
 42
0.000000001
 43
0.0000000001
 40
-0.7999999999761459
 40
-0.7999999999761459
 40
-0.7999999999761459
 40
0.0
 40
0.0
 40
0.0
 10
-3.5
 20
-1.200000000000002
 30
-156.1432771202
 10
-3.5
 20
-1.400000000000001
 30
-156.4896872817
 10
-3.5
 20
-1.6
 30
-156.8360974432
  0
SPLINE
  5
335
330
30A
100
AcDbEntity
  8
Layer 01
100
AcDbSpline
210
0.0
220
0.0
230
1.0
 70
    24
 71
     2
 72
     6
 73
     3
 74
     0
 42
0.000000001
 43
0.0000000001
 40
-0.8
 40
-0.8
 40
-0.8
 40
0.0
 40
0.0
 40
0.0
 10
-3.5
 20
0.0
 30
-155.4504567971
 10
-3.5
 20
0.4
 30
-155.4504567971
 10
-3.5
 20
0.8
 30
-155.4504567971
  0
ARC
  5
336
330
30A
100
AcDbEntity
  8
Layer 01
100
AcDbCircle
 10
-0.8000000000259213
 20
-155.4504567971
 30
3.5
 40
1.600000000025921
210
1.0
220
0.0
230
0.0
100
AcDbArc
 50
240.0000000016078
 51
0.0
  0
ARC
  5
337
330
30A
100
AcDbEntity
  8
Layer 01
100
AcDbCircle
 10
0.8000000000259215
 20
-155.4504567971
 30
3.5
 40
1.600000000025922
210
-1.0
220
0.0
230
0.0
100
AcDbArc
 50
180.0
 51
299.9999999983922
  0
SPLINE
  5
338
330
30A
100
AcDbEntity
  8
Layer 01
100
AcDbSpline
210
0.0
220
0.0
230
1.0
 70
    24
 71
     2
 72
     6
 73
     3
 74
     0
 42
0.000000001
 43
0.0000000001
 40
-0.8
 40
-0.8
 40
-0.8
 40
0.0
 40
0.0
 40
0.0
 10
-4.0
 20
0.0
 30
-155.4504567971
 10
-4.0
 20
0.4
 30
-155.4504567971
 10
-4.0
 20
0.8
 30
-155.4504567971
  0
SPLINE
  5
339
330
30A
100
AcDbEntity
  8
Layer 01
100
AcDbSpline
210
0.0
220
0.0
230
1.0
 70
    24
 71
     2
 72
     6
 73
     3
 74
     0
 42
0.000000001
 43
0.0000000001
 40
-0.5
 40
-0.5
 40
-0.5
 40
0.0
 40
0.0
 40
0.0
 10
-3.5
 20
0.0
 30
-155.4504567971
 10
-3.75
 20
0.0
 30
-155.4504567971
 10
-4.0
 20
0.0
 30
-155.4504567971
  0
SPLINE
  5
33A
330
30A
100
AcDbEntity
  8
Layer 01
100
AcDbSpline
210
0.0
220
0.0
230
1.0
 70
    24
 71
     2
 72
     6
 73
     3
 74
     0
 42
0.000000001
 43
0.0000000001
 40
-3.936650586199988
 40
-3.936650586199988
 40
-3.936650586199988
 40
0.0
 40
0.0
 40
0.0
 10
-4.0
 20
0.0
 30
-155.4504567971
 10
-4.0
 20
0.0
 30
-157.4187820902
 10
-4.0
 20
0.0
 30
-159.3871073833
  0
ARC
  5
33B
330
30A
100
AcDbEntity
  8
Layer 01
100
AcDbCircle
 10
-0.0000000000000298
 20
-0.0000000351778908
 30
0.0
 40
161.4999999647972
210
0.0
220
1.0
230
0.0
100
AcDbArc
 50
272.1558357803322
 51
267.8441642196679
  0
SPLINE
  5
33C
330
30A
100
AcDbEntity
  8
Layer 01
100
AcDbSpline
210
0.0
220
0.0
230
1.0
 70
    24
 71
     2
 72
     6
 73
     3
 74
     0
 42
0.000000001
 43
0.0000000001
 40
0.0
 40
0.0
 40
0.0
 40
7.0
 40
7.0
 40
7.0
 10
3.5
 20
0.0
 30
-155.4504567971
 10
0.0
 20
0.0
 30
-155.4504567971
 10
-3.5
 20
0.0
 30
-155.4504567971
  0
ARC
  5
33D
330
30A
100
AcDbEntity
  8
Layer 01
100
AcDbCircle
 10
-0.8000000000418361
 20
-155.4504567971
 30
-3.5
 40
0.8000000000418361
210
1.0
220
0.0
230
0.0
100
AcDbArc
 50
240.0000000051885
 51
0.0
  0
ARC
  5
33E
330
30A
100
AcDbEntity
  8
Layer 01
100
AcDbCircle
 10
0.8000000000418351
 20
-155.4504567971
 30
-3.5
 40
0.8000000000418351
210
-1.0
220
0.0
230
0.0
100
AcDbArc
 50
180.0
 51
299.9999999948115
  0
ARC
  5
33F
330
30A
100
AcDbEntity
  8
Layer 01
100
AcDbCircle
 10
19.19442158631
 20
-156.3260188835
 30
-0.8
 40
1.75
210
0.0
220
-1.0
230
0.0
100
AcDbArc
 50
180.0
 51
0.0
  0
SPLINE
  5
340
330
30A
100
AcDbEntity
  8
Layer 01
100
AcDbSpline
210
0.0
220
0.0
230
1.0
 70
    24
 71
     2
 72
     6
 73
     3
 74
     0
 42
0.000000001
 43
0.0000000001
 40
0.0
 40
0.0
 40
0.0
 40
0.8
 40
0.8
 40
0.8
 10
20.94442158631
 20
0.8
 30
-156.3260188835
 10
20.94442158631
 20
0.4
 30
-156.3260188835
 10
20.94442158631
 20
0.0
 30
-156.3260188835
  0
ARC
  5
341
330
30A
100
AcDbEntity
  8
Layer 01
100
AcDbCircle
 10
19.19442158631
 20
-156.3260188835
 30
0.0
 40
1.75
210
0.0
220
-1.0
230
0.0
100
AcDbArc
 50
180.0
 51
0.0
  0
SPLINE
  5
342
330
30A
100
AcDbEntity
  8
Layer 01
100
AcDbSpline
210
0.0
220
0.0
230
1.0
 70
    24
 71
     2
 72
     6
 73
     3
 74
     0
 42
0.000000001
 43
0.0000000001
 40
0.0
 40
0.0
 40
0.0
 40
0.8
 40
0.8
 40
0.8
 10
17.44442158631
 20
0.0
 30
-156.3260188835
 10
17.44442158631
 20
0.4
 30
-156.3260188835
 10
17.44442158631
 20
0.8
 30
-156.3260188835
  0
ARC
  5
343
330
30A
100
AcDbEntity
  8
Layer 01
100
AcDbCircle
 10
19.19442158631
 20
-156.3260188835
 30
-0.8
 40
1.75
210
0.0
220
-1.0
230
0.0
100
AcDbArc
 50
0.0
 51
180.0
  0
ARC
  5
344
330
30A
100
AcDbEntity
  8
Layer 01
100
AcDbCircle
 10
19.19442158631
 20
-156.3260188835
 30
0.0
 40
1.75
210
0.0
220
-1.0
230
0.0
100
AcDbArc
 50
0.0
 51
180.0
  0
LINE
  5
345
330
30A
100
AcDbEntity
  8
Layer 01
100
AcDbLine
 10
-161.4999947207187
 20
0.8
 30
0.0411561632609647
 11
161.4999947207186
 21
0.8
 31
0.0411561632609647
  0
LINE
  5
346
330
30A
100
AcDbEntity
  8
Layer 01
100
AcDbLine
 10
0.0000000000000426
 20
0.8
 30
161.4999999295902
 11
0.0000000000000426
 21
0.8
 31
-155.4504567971
  0
ARC
  5
347
330
30A
100
AcDbEntity
  8
Layer 01
100
AcDbCircle
 10
6.0
 20
-159.3871073833
 30
0.4000000000000004
 40
2.0
210
0.0
220
1.0
230
0.0
100
AcDbArc
 50
180.0
 51
272.1558357799721
  0
LINE
  5
348
330
30A
100
AcDbEntity
  8
Layer 01
100
AcDbLine
 10
-6.0
 20
0.0000000000000001
 30
-161.3871073833
 11
-6.0
 21
0.8000000000000002
 31
-161.3871073833
  0
ARC
  5
349
330
30A
100
AcDbEntity
  8
Layer 01
100
AcDbCircle
 10
0.0
 20
0.0
 30
0.4
 40
161.5
210
0.0
220
1.0
230
0.0
100
AcDbArc
 50
272.1558357798626
 51
267.8441642201374
  0
LINE
  5
34A
330
30A
100
AcDbEntity
  8
Layer 01
100
AcDbLine
 10
-161.450456797124
 20
0.0000000000000001
 30
4.000000000000962
 11
-161.450456797124
 21
0.8
 31
4.000000000000962
  0
LINE
  5
34B
330
30A
100
AcDbEntity
  8
Layer 01
100
AcDbLine
 10
4.000000000000962
 20
0.0000000000000001
 30
161.450456797124
 11
4.000000000000962
 21
0.8
 31
161.450456797124
  0
LINE
  5
34C
330
30A
100
AcDbEntity
  8
Layer 01
100
AcDbLine
 10
161.450456797124
 20
0.0000000000000001
 30
-4.000000000000962
 11
161.450456797124
 21
0.8
 31
-4.000000000000962
  0
ARC
  5
34D
330
30A
100
AcDbEntity
  8
Layer 01
100
AcDbCircle
 10
-6.0
 20
-159.3871073833
 30
0.4000000000000004
 40
2.000000000000008
210
0.0
220
1.0
230
0.0
100
AcDbArc
 50
267.8441642201383
 51
0.0
  0
LINE
  5
34E
330
30A
100
AcDbEntity
  8
Layer 01
100
AcDbLine
 10
4.001415581401233
 20
0.0000000000000001
 30
-159.4623424930178
 11
4.001415581401233
 21
0.8000000000000002
 31
-159.4623424930178
  0
LINE
  5
34F
330
30A
100
AcDbEntity
  8
Layer 01
100
AcDbLine
 10
4.0
 20
0.4
 30
-159.3871073833
 11
4.0
 21
0.4
 31
-155.4504567971
  0
LINE
  5
350
330
30A
100
AcDbEntity
  8
Layer 01
100
AcDbLine
 10
4.0
 20
0.0
 30
-157.4187820902
 11
4.0
 21
0.7999999999999999
 31
-157.4187820902
  0
LINE
  5
351
330
30A
100
AcDbEntity
  8
Layer 01
100
AcDbLine
 10
4.0
 20
0.4
 30
-155.4504567971
 11
3.5
 21
0.4
 31
-155.4504567971
  0
LINE
  5
352
330
30A
100
AcDbEntity
  8
Layer 01
100
AcDbLine
 10
3.75
 20
0.0
 30
-155.4504567971
 11
3.75
 21
0.7999999999999999
 31
-155.4504567971
  0
LINE
  5
353
330
30A
100
AcDbEntity
  8
Layer 01
100
AcDbLine
 10
3.5
 20
-0.3999999999999999
 30
-156.1432771201517
 11
3.5
 21
-0.3999999999999999
 31
-156.999650135603
  0
LINE
  5
354
330
30A
100
AcDbEntity
  8
Layer 01
100
AcDbLine
 10
3.5
 20
-1.33333333330329
 30
-156.3742172278146
 11
3.5
 21
0.5063945294822495
 31
-156.3742172278146
  0
LINE
  5
355
330
30A
100
AcDbEntity
  8
Layer 01
100
AcDbLine
 10
3.5
 20
-1.399999999994816
 30
-156.489687281691
 11
3.5
 21
-8.147334331110184
 31
-152.594111989309
  0
LINE
  5
356
330
30A
100
AcDbEntity
  8
Layer 01
100
AcDbLine
 10
3.5
 20
-4.573667165558457
 30
-154.1954894739965
 11
3.5
 21
-4.973667165546543
 31
-154.8883097970034
  0
ARC
  5
357
330
30A
100
AcDbEntity
  8
Layer 01
100
AcDbCircle
 10
1.5
 20
-69.24125749079163
 30
136.2240446162124
 40
2.0
210
0.0
220
-0.5000000000000189
230
-0.8660254037844277
100
AcDbArc
 50
0.0
 51
89.99999999999987
  0
LINE
  5
358
330
30A
100
AcDbEntity
  8
Layer 01
100
AcDbLine
 10
1.500000000000006
 20
-9.679385138679281
 30
-151.2477018277969
 11
1.500000000000008
 21
-10.07938513866639
 31
-151.9405221508021
  0
LINE
  5
359
330
30A
100
AcDbEntity
  8
Layer 01
100
AcDbLine
 10
-3.5
 20
-5.839692569357652
 30
-154.3883097970358
 11
-1.203305819679805
 21
-5.839692569357652
 31
-154.3883097970358
  0
LINE
  5
35A
330
30A
100
AcDbEntity
  8
Layer 01
100
AcDbLine
 10
1.203305819679805
 20
-5.839692569357652
 30
-154.3883097970358
 11
3.5
 21
-5.839692569357652
 31
-154.3883097970358
  0
LINE
  5
35B
330
30A
100
AcDbEntity
  8
Layer 01
100
AcDbLine
 10
0.0000000000000009
 20
-1.600000000015486
 30
-156.8360974432269
 11
0.0000000000000009
 21
-5.316245417885306
 31
-154.6905221508449
  0
LINE
  5
35C
330
30A
100
AcDbEntity
  8
Layer 01
100
AcDbLine
 10
0.0000000000000009
 20
-7.914321629238595
 30
-153.1905221508449
 11
0.0000000000000009
 21
-10.07938513869684
 31
-151.9405221508465
  0
ARC
  5
35D
330
30A
100
AcDbEntity
  8
Layer 01
100
AcDbCircle
 10
0.0
 20
-71.24125749079107
 30
-136.2240446162123
 40
1.500000000000006
210
0.0
220
0.5000000000000189
230
0.8660254037844277
100
AcDbArc
 50
179.9999999999995
 51
0.0
  0
LINE
  5
35E
330
30A
100
AcDbEntity
  8
Layer 01
100
AcDbLine
 10
0.0000000000000057
 20
-5.316245417853395
 30
-154.6905221508035
 11
0.0000000000000085
 21
-4.916245417865312
 31
-153.9977018277966
  0
ARC
  5
35F
330
30A
100
AcDbEntity
  8
Layer 01
100
AcDbCircle
 10
0.0000000000000142
 20
-71.24125749079106
 30
-136.2240446162122
 40
1.500000000000007
210
0.0
220
0.5000000000000189
230
0.8660254037844277
100
AcDbArc
 50
0.0000000000005428
 51
179.9999999999989
  0
LINE
  5
360
330
30A
100
AcDbEntity
  8
Layer 01
100
AcDbLine
 10
-1.500000000000014
 20
-6.414799285484577
 30
-153.593273264392
 11
-1.500000000000014
 21
-6.215283523541943
 31
-153.2477018277966
  0
LINE
  5
361
330
30A
100
AcDbEntity
  8
Layer 01
100
AcDbLine
 10
-0.0000000000000085
 20
-7.914321629206654
 30
-153.1905221508034
 11
-0.0000000000000057
 21
-7.514321629218562
 31
-152.4977018277965
  0
LINE
  5
362
330
30A
100
AcDbEntity
  8
Layer 01
100
AcDbLine
 10
1.499999999999986
 20
-6.414392568664804
 30
-153.5925688101959
 11
1.499999999999986
 21
-6.215283523541931
 31
-153.2477018277966
  0
LINE
  5
363
330
30A
100
AcDbEntity
  8
Layer 01
100
AcDbLine
 10
-3.5
 20
-5.43969256931436
 30
-153.6954894739608
 11
-1.203305819679827
 21
-5.43969256931436
 31
-153.6954894739608
  0
LINE
  5
364
330
30A
100
AcDbEntity
  8
Layer 01
100
AcDbLine
 10
1.203305819679847
 20
-5.43969256931436
 30
-153.6954894739608
 11
3.5
 21
-5.43969256931436
 31
-153.6954894739608
  0
LINE
  5
365
330
30A
100
AcDbEntity
  8
Layer 01
100
AcDbLine
 10
0.0
 20
-1.199999999972213
 30
-156.1432771201519
 11
0.0
 21
-4.916245417841981
 31
-153.99770182777
  0
LINE
  5
366
330
30A
100
AcDbEntity
  8
Layer 01
100
AcDbLine
 10
0.0
 20
-7.514321629195289
 30
-152.4977018277699
 11
0.0
 21
-9.679385138656531
 31
-151.2477018277698
  0
LINE
  5
367
330
30A
100
AcDbEntity
  8
Layer 01
100
AcDbLine
 10
1.5
 20
-9.879385138673506
 30
-151.5941119892991
 11
-1.5
 21
-9.879385138673506
 31
-151.5941119892991
  0
LINE
  5
368
330
30A
100
AcDbEntity
  8
Layer 01
100
AcDbLine
 10
0.0
 20
-9.679385138679963
 30
-151.2477018277966
 11
0.0
 21
-10.07938513866705
 31
-151.9405221508017
  0
ARC
  5
369
330
30A
100
AcDbEntity
  8
Layer 01
100
AcDbCircle
 10
-1.5
 20
-69.24125749079165
 30
136.2240446162124
 40
1.99999999999998
210
0.0
220
-0.5000000000000189
230
-0.8660254037844277
100
AcDbArc
 50
90.0
 51
180.0
  0
LINE
  5
36A
330
30A
100
AcDbEntity
  8
Layer 01
100
AcDbLine
 10
-3.5
 20
-8.147334331110184
 30
-152.594111989309
 11
-3.5
 21
-1.399999999994816
 31
-156.489687281691
  0
LINE
  5
36B
330
30A
100
AcDbEntity
  8
Layer 01
100
AcDbLine
 10
-3.5
 20
-4.573667165558457
 30
-154.1954894739965
 11
-3.5
 21
-4.973667165546543
 31
-154.8883097970034
  0
LINE
  5
36C
330
30A
100
AcDbEntity
  8
Layer 01
100
AcDbLine
 10
-3.5
 20
-0.3999999999999999
 30
-156.999650135603
 11
-3.5
 21
-0.3999999999999999
 31
-156.1432771201517
  0
LINE
  5
36D
330
30A
100
AcDbEntity
  8
Layer 01
100
AcDbLine
 10
-3.5
 20
-1.33333333330329
 30
-156.3742172278146
 11
-3.5
 21
0.5063945294822498
 31
-156.3742172278146
  0
ARC
  5
36E
330
30A
100
AcDbEntity
  8
Layer 01
100
AcDbCircle
 10
0.8
 20
-155.4504567971
 30
0.0
 40
1.6
210
-1.0
220
0.0
230
0.0
100
AcDbArc
 50
180.0
 51
299.9999999991962
  0
LINE
  5
36F
330
30A
100
AcDbEntity
  8
Layer 01
100
AcDbLine
 10
3.5
 20
-0.8000000000000114
 30
-157.0504567971
 11
-3.5
 21
-0.8000000000000114
 31
-157.0504567971
  0
LINE
  5
370
330
30A
100
AcDbEntity
  8
Layer 01
100
AcDbLine
 10
-3.5
 20
0.4
 30
-155.4504567971
 11
-4.0
 21
0.4
 31
-155.4504567971
  0
LINE
  5
371
330
30A
100
AcDbEntity
  8
Layer 01
100
AcDbLine
 10
-3.75
 20
0.0
 30
-155.4504567971
 11
-3.75
 21
0.7999999999999999
 31
-155.4504567971
  0
LINE
  5
372
330
30A
100
AcDbEntity
  8
Layer 01
100
AcDbLine
 10
-4.0
 20
0.4
 30
-155.4504567971
 11
-4.0
 21
0.4
 31
-159.3871073833
  0
LINE
  5
373
330
30A
100
AcDbEntity
  8
Layer 01
100
AcDbLine
 10
-4.0
 20
0.0
 30
-157.4187820902
 11
-4.0
 21
0.7999999999999999
 31
-157.4187820902
  0
LINE
  5
374
330
30A
100
AcDbEntity
  8
Layer 01
100
AcDbLine
 10
-161.4999947207187
 20
0.0
 30
0.0411561632609647
 11
161.4999947207186
 21
0.0
 31
0.0411561632609647
  0
LINE
  5
375
330
30A
100
AcDbEntity
  8
Layer 01
100
AcDbLine
 10
0.0000000000000142
 20
0.0
 30
161.4999999295903
 11
0.0000000000000142
 21
0.0
 31
-155.4504567971
  0
ARC
  5
376
330
30A
100
AcDbEntity
  8
Layer 01
100
AcDbCircle
 10
0.8
 20
-155.4504567971
 30
0.0
 40
0.8
210
-1.0
220
0.0
230
0.0
100
AcDbArc
 50
180.0
 51
299.9999999974063
  0
LINE
  5
377
330
30A
100
AcDbEntity
  8
Layer 01
100
AcDbLine
 10
3.5
 20
-0.8000000000000114
 30
-156.2504567971
 11
-3.5
 21
-0.8000000000000114
 31
-156.2504567971
  0
ARC
  5
378
330
30A
100
AcDbEntity
  8
Layer 01
100
AcDbCircle
 10
19.19442158631
 20
-156.3260188835
 30
-0.3999999999999999
 40
1.75
210
0.0
220
-1.0
230
0.0
100
AcDbArc
 50
180.0
 51
0.0
  0
LINE
  5
379
330
30A
100
AcDbEntity
  8
Layer 01
100
AcDbLine
 10
19.19442158631
 20
0.7999999999999999
 30
-158.0760188835
 11
19.19442158631
 21
-0.0000000000000002
 31
-158.0760188835
  0
ARC
  5
37A
330
30A
100
AcDbEntity
  8
Layer 01
100
AcDbCircle
 10
19.19442158631
 20
-156.3260188835
 30
-0.3999999999999999
 40
1.75
210
0.0
220
-1.0
230
0.0
100
AcDbArc
 50
0.0
 51
180.0
  0
LINE
  5
37B
330
30A
100
AcDbEntity
  8
Layer 01
100
AcDbLine
 10
19.19442158631
 20
0.7999999999999999
 30
-154.5760188835
 11
19.19442158631
 21
-0.0000000000000002
 31
-154.5760188835
  0
ENDBLK
  5
37D
330
30A
100
AcDbEntity
  8
0
100
AcDbBlockEnd
  0
ENDSEC
  0
SECTION
  2
ENTITIES
  0
INSERT
  5
381
330
1F
100
AcDbEntity
  8
Layer 01
100
AcDbBlockReference
  2
D81C_1100_ASM
 10
0.0
 20
0.0
 30
0.0
  0
ENDSEC
  0
SECTION
  2
OBJECTS
  0
DICTIONARY
  5
C
330
0
100
AcDbDictionary
281
     1
  3
ACAD_DETAILVIEWSTYLE
350
3BD
  3
ACAD_GROUP
350
D
  3
ACAD_LAYOUT
350
1A
  3
ACAD_MATERIAL
350
43
  3
ACAD_MLEADERSTYLE
350
6B
  3
ACAD_MLINESTYLE
350
17
  3
ACAD_PLOTSETTINGS
350
19
  3
ACAD_PLOTSTYLENAME
350
E
  3
ACAD_SCALELIST
350
47
  3
ACAD_SECTIONVIEWSTYLE
350
3BE
  3
ACAD_TABLESTYLE
350
69
  3
ACAD_VISUALSTYLE
350
2A
  3
ACDB_RECOMPOSE_DATA
350
3BA
  3
AcDbVariableDictionary
350
382
  0
SUN
  5
6D
330
29
100
AcDbSun
 90
        1
290
     0
 63
     7
421
 16777215
 40
1.0
291
     1
 91
  2455826
 92
 54000000
292
     0
 70
     2
 71
   256
280
     1
  0
DICTIONARY
  5
3BD
102
{ACAD_REACTORS
330
C
102
}
330
C
100
AcDbDictionary
281
     1
  0
DICTIONARY
  5
D
102
{ACAD_REACTORS
330
C
102
}
330
C
100
AcDbDictionary
281
     1
  0
DICTIONARY
  5
1A
102
{ACAD_REACTORS
330
C
102
}
330
C
100
AcDbDictionary
281
     1
  3
Layout1
350
1E
  3
Layout2
350
26
  3
Model
350
22
  0
DICTIONARY
  5
43
102
{ACAD_REACTORS
330
C
102
}
330
C
100
AcDbDictionary
281
     1
  3
ByBlock
350
45
  3
ByLayer
350
44
  3
Global
350
46
  0
DICTIONARY
  5
6B
102
{ACAD_REACTORS
330
C
102
}
330
C
100
AcDbDictionary
281
     1
  3
Standard
350
6C
  0
DICTIONARY
  5
17
102
{ACAD_REACTORS
330
C
102
}
330
C
100
AcDbDictionary
281
     1
  3
Standard
350
18
  0
DICTIONARY
  5
19
102
{ACAD_REACTORS
330
C
102
}
330
C
100
AcDbDictionary
281
     1
  0
ACDBDICTIONARYWDFLT
  5
E
102
{ACAD_REACTORS
330
C
102
}
330
C
100
AcDbDictionary
281
     1
  3
Normal
350
F
100
AcDbDictionaryWithDefault
340
F
  0
DICTIONARY
  5
47
102
{ACAD_REACTORS
330
C
102
}
330
C
100
AcDbDictionary
281
     1
  3
A0
350
48
  3
A1
350
49
  3
A2
350
4A
  3
A3
350
4B
  3
A4
350
4C
  3
A5
350
4D
  3
A6
350
4E
  3
A7
350
4F
  3
A8
350
50
  3
A9
350
51
  3
B0
350
52
  3
B1
350
53
  3
B2
350
54
  3
B3
350
55
  3
B4
350
56
  3
B5
350
57
  3
B6
350
58
  3
B7
350
59
  3
B8
350
5A
  3
B9
350
5B
  3
C0
350
5C
  3
C1
350
5D
  3
C2
350
5E
  3
C3
350
5F
  3
C4
350
60
  3
C5
350
61
  3
C6
350
62
  3
C7
350
63
  3
C8
350
64
  3
C9
350
65
  3
D0
350
66
  3
D1
350
67
  3
D2
350
68
  0
DICTIONARY
  5
3BE
102
{ACAD_REACTORS
330
C
102
}
330
C
100
AcDbDictionary
281
     1
  0
DICTIONARY
  5
69
102
{ACAD_REACTORS
330
C
102
}
330
C
100
AcDbDictionary
281
     1
  3
Standard
350
6A
  0
DICTIONARY
  5
2A
102
{ACAD_REACTORS
330
C
102
}
330
C
100
AcDbDictionary
281
     1
  3
2dWireframe
350
2F
  3
Basic
350
32
  3
Brighten
350
36
  3
ColorChange
350
3A
  3
Conceptual
350
34
  3
Dim
350
35
  3
EdgeColorOff
350
3D
  3
Facepattern
350
39
  3
Flat
350
2B
  3
FlatWithEdges
350
2C
  3
Gouraud
350
2D
  3
GouraudWithEdges
350
2E
  3
Hidden
350
31
  3
JitterOff
350
3B
  3
Linepattern
350
38
  3
OverhangOff
350
3C
  3
Realistic
350
33
  3
Shaded
350
42
  3
Shaded with edges
350
41
  3
Shades of Gray
350
3E
  3
Sketchy
350
3F
  3
Thicken
350
37
  3
Wireframe
350
30
  3
X-Ray
350
40
  0
XRECORD
  5
3BA
102
{ACAD_REACTORS
330
C
102
}
330
C
100
AcDbXrecord
280
     1
 90
        1
330
6A
  0
DICTIONARY
  5
382
102
{ACAD_REACTORS
330
C
102
}
330
C
100
AcDbDictionary
281
     1
  3
CANNOSCALE
350
383
  3
CMLEADERSTYLE
350
3BC
  3
CTABLESTYLE
350
3BB
  3
XCLIPFRAME
350
384
  0
LAYOUT
  5
1E
102
{ACAD_REACTORS
330
1A
102
}
330
1A
100
AcDbPlotSettings
  1

  2
none_device
  4

  6

 40
0.0
 41
0.0
 42
0.0
 43
0.0
 44
0.0
 45
0.0
 46
0.0
 47
0.0
 48
0.0
 49
0.0
140
0.0
141
0.0
142
1.0
143
1.0
 70
   688
 72
     0
 73
     0
 74
     5
  7

 75
    16
 76
     0
 77
     2
 78
   300
147
1.0
148
0.0
149
0.0
100
AcDbLayout
  1
Layout1
 70
     1
 71
     1
 10
0.0
 20
0.0
 11
12.0
 21
9.0
 12
0.0
 22
0.0
 32
0.0
 14
1.000000000000000E+20
 24
1.000000000000000E+20
 34
1.000000000000000E+20
 15
-1.000000000000000E+20
 25
-1.000000000000000E+20
 35
-1.000000000000000E+20
146
0.0
 13
0.0
 23
0.0
 33
0.0
 16
1.0
 26
0.0
 36
0.0
 17
0.0
 27
1.0
 37
0.0
 76
     0
330
1B
  0
LAYOUT
  5
26
102
{ACAD_REACTORS
330
1A
102
}
330
1A
100
AcDbPlotSettings
  1

  2
none_device
  4

  6

 40
0.0
 41
0.0
 42
0.0
 43
0.0
 44
0.0
 45
0.0
 46
0.0
 47
0.0
 48
0.0
 49
0.0
140
0.0
141
0.0
142
1.0
143
1.0
 70
   688
 72
     0
 73
     0
 74
     5
  7

 75
    16
 76
     0
 77
     2
 78
   300
147
1.0
148
0.0
149
0.0
100
AcDbLayout
  1
Layout2
 70
     1
 71
     2
 10
0.0
 20
0.0
 11
0.0
 21
0.0
 12
0.0
 22
0.0
 32
0.0
 14
0.0
 24
0.0
 34
0.0
 15
0.0
 25
0.0
 35
0.0
146
0.0
 13
0.0
 23
0.0
 33
0.0
 16
1.0
 26
0.0
 36
0.0
 17
0.0
 27
1.0
 37
0.0
 76
     0
330
23
  0
LAYOUT
  5
22
102
{ACAD_REACTORS
330
1A
102
}
330
1A
100
AcDbPlotSettings
  1

  2
none_device
  4
Letter_(8.50_x_11.00_Inches)
  6

 40
6.35
 41
6.35
 42
6.35000508
 43
6.35000508
 44
215.9
 45
279.4
 46
0.0
 47
0.0
 48
0.0
 49
0.0
140
0.0
141
0.0
142
1.0
143
1.0
 70
  1712
 72
     0
 73
     0
 74
     0
  7

 75
     0
 76
     0
 77
     2
 78
   300
147
1.0
148
0.0
149
0.0
100
AcDbLayout
  1
Model
 70
     1
 71
     0
 10
0.0
 20
0.0
 11
12.0
 21
9.0
 12
0.0
 22
0.0
 32
0.0
 14
1.000000000000000E+20
 24
1.000000000000000E+20
 34
1.000000000000000E+20
 15
-1.000000000000000E+20
 25
-1.000000000000000E+20
 35
-1.000000000000000E+20
146
0.0
 13
0.0
 23
0.0
 33
0.0
 16
1.0
 26
0.0
 36
0.0
 17
0.0
 27
1.0
 37
0.0
 76
     0
330
1F
331
29
  0
MATERIAL
  5
45
102
{ACAD_REACTORS
330
43
102
}
330
43
100
AcDbMaterial
  1
ByBlock
 72
     1
 94
      127
  0
MATERIAL
  5
44
102
{ACAD_REACTORS
330
43
102
}
330
43
100
AcDbMaterial
  1
ByLayer
 72
     1
 94
      127
  0
MATERIAL
  5
46
102
{ACAD_REACTORS
330
43
102
}
330
43
100
AcDbMaterial
  1
Global
 72
     1
 94
      127
  0
MLEADERSTYLE
  5
6C
102
{ACAD_REACTORS
330
6B
102
}
102
{ACAD_XDICTIONARY
360
3B8
102
}
330
6B
100
AcDbMLeaderStyle
170
     2
171
     1
172
     0
 90
        2
 40
0.0
 41
0.0
173
     1
 91
-1056964608
340
14
 92
       -2
290
     1
 42
0.09
291
     1
 43
0.36
  3
Standard
341
0
 44
0.18
300

342
11
174
     1
178
     6
175
     1
176
     0
 93
-1056964608
 45
0.18
292
     0
297
     0
 46
0.18
343
0
 94
-1056964608
 47
1.0
 49
1.0
140
1.0
293
     1
141
0.0
294
     1
177
     0
142
1.0
295
     0
296
     0
143
0.125
1001
ACAD_MLEADERVER
1070
     2
  0
MLINESTYLE
  5
18
102
{ACAD_REACTORS
330
17
102
}
330
17
100
AcDbMlineStyle
  2
Standard
 70
     0
  3

 62
   256
 51
90.0
 52
90.0
 71
     2
 49
0.5
 62
   256
  6
BYLAYER
 49
-0.5
 62
   256
  6
BYLAYER
  0
ACDBPLACEHOLDER
  5
F
102
{ACAD_REACTORS
330
E
102
}
330
E
  0
SCALE
  5
48
102
{ACAD_REACTORS
330
47
102
}
330
47
100
AcDbScale
 70
     0
300
1:1
140
1.0
141
1.0
290
     1
  0
SCALE
  5
49
102
{ACAD_REACTORS
330
47
102
}
330
47
100
AcDbScale
 70
     0
300
1:2
140
1.0
141
2.0
290
     0
  0
SCALE
  5
4A
102
{ACAD_REACTORS
330
47
102
}
330
47
100
AcDbScale
 70
     0
300
1:4
140
1.0
141
4.0
290
     0
  0
SCALE
  5
4B
102
{ACAD_REACTORS
330
47
102
}
330
47
100
AcDbScale
 70
     0
300
1:5
140
1.0
141
5.0
290
     0
  0
SCALE
  5
4C
102
{ACAD_REACTORS
330
47
102
}
330
47
100
AcDbScale
 70
     0
300
1:8
140
1.0
141
8.0
290
     0
  0
SCALE
  5
4D
102
{ACAD_REACTORS
330
47
102
}
330
47
100
AcDbScale
 70
     0
300
1:10
140
1.0
141
10.0
290
     0
  0
SCALE
  5
4E
102
{ACAD_REACTORS
330
47
102
}
330
47
100
AcDbScale
 70
     0
300
1:16
140
1.0
141
16.0
290
     0
  0
SCALE
  5
4F
102
{ACAD_REACTORS
330
47
102
}
330
47
100
AcDbScale
 70
     0
300
1:20
140
1.0
141
20.0
290
     0
  0
SCALE
  5
50
102
{ACAD_REACTORS
330
47
102
}
330
47
100
AcDbScale
 70
     0
300
1:30
140
1.0
141
30.0
290
     0
  0
SCALE
  5
51
102
{ACAD_REACTORS
330
47
102
}
330
47
100
AcDbScale
 70
     0
300
1:40
140
1.0
141
40.0
290
     0
  0
SCALE
  5
52
102
{ACAD_REACTORS
330
47
102
}
330
47
100
AcDbScale
 70
     0
300
1:50
140
1.0
141
50.0
290
     0
  0
SCALE
  5
53
102
{ACAD_REACTORS
330
47
102
}
330
47
100
AcDbScale
 70
     0
300
1:100
140
1.0
141
100.0
290
     0
  0
SCALE
  5
54
102
{ACAD_REACTORS
330
47
102
}
330
47
100
AcDbScale
 70
     0
300
2:1
140
2.0
141
1.0
290
     0
  0
SCALE
  5
55
102
{ACAD_REACTORS
330
47
102
}
330
47
100
AcDbScale
 70
     0
300
4:1
140
4.0
141
1.0
290
     0
  0
SCALE
  5
56
102
{ACAD_REACTORS
330
47
102
}
330
47
100
AcDbScale
 70
     0
300
8:1
140
8.0
141
1.0
290
     0
  0
SCALE
  5
57
102
{ACAD_REACTORS
330
47
102
}
330
47
100
AcDbScale
 70
     0
300
10:1
140
10.0
141
1.0
290
     0
  0
SCALE
  5
58
102
{ACAD_REACTORS
330
47
102
}
330
47
100
AcDbScale
 70
     0
300
100:1
140
100.0
141
1.0
290
     0
  0
SCALE
  5
59
102
{ACAD_REACTORS
330
47
102
}
330
47
100
AcDbScale
 70
     0
300
1/128" = 1'-0"
140
0.0078125
141
12.0
290
     0
  0
SCALE
  5
5A
102
{ACAD_REACTORS
330
47
102
}
330
47
100
AcDbScale
 70
     0
300
1/64" = 1'-0"
140
0.015625
141
12.0
290
     0
  0
SCALE
  5
5B
102
{ACAD_REACTORS
330
47
102
}
330
47
100
AcDbScale
 70
     0
300
1/32" = 1'-0"
140
0.03125
141
12.0
290
     0
  0
SCALE
  5
5C
102
{ACAD_REACTORS
330
47
102
}
330
47
100
AcDbScale
 70
     0
300
1/16" = 1'-0"
140
0.0625
141
12.0
290
     0
  0
SCALE
  5
5D
102
{ACAD_REACTORS
330
47
102
}
330
47
100
AcDbScale
 70
     0
300
3/32" = 1'-0"
140
0.09375
141
12.0
290
     0
  0
SCALE
  5
5E
102
{ACAD_REACTORS
330
47
102
}
330
47
100
AcDbScale
 70
     0
300
1/8" = 1'-0"
140
0.125
141
12.0
290
     0
  0
SCALE
  5
5F
102
{ACAD_REACTORS
330
47
102
}
330
47
100
AcDbScale
 70
     0
300
3/16" = 1'-0"
140
0.1875
141
12.0
290
     0
  0
SCALE
  5
60
102
{ACAD_REACTORS
330
47
102
}
330
47
100
AcDbScale
 70
     0
300
1/4" = 1'-0"
140
0.25
141
12.0
290
     0
  0
SCALE
  5
61
102
{ACAD_REACTORS
330
47
102
}
330
47
100
AcDbScale
 70
     0
300
3/8" = 1'-0"
140
0.375
141
12.0
290
     0
  0
SCALE
  5
62
102
{ACAD_REACTORS
330
47
102
}
330
47
100
AcDbScale
 70
     0
300
1/2" = 1'-0"
140
0.5
141
12.0
290
     0
  0
SCALE
  5
63
102
{ACAD_REACTORS
330
47
102
}
330
47
100
AcDbScale
 70
     0
300
3/4" = 1'-0"
140
0.75
141
12.0
290
     0
  0
SCALE
  5
64
102
{ACAD_REACTORS
330
47
102
}
330
47
100
AcDbScale
 70
     0
300
1" = 1'-0"
140
1.0
141
12.0
290
     0
  0
SCALE
  5
65
102
{ACAD_REACTORS
330
47
102
}
330
47
100
AcDbScale
 70
     0
300
1-1/2" = 1'-0"
140
1.5
141
12.0
290
     0
  0
SCALE
  5
66
102
{ACAD_REACTORS
330
47
102
}
330
47
100
AcDbScale
 70
     0
300
3" = 1'-0"
140
3.0
141
12.0
290
     0
  0
SCALE
  5
67
102
{ACAD_REACTORS
330
47
102
}
330
47
100
AcDbScale
 70
     0
300
6" = 1'-0"
140
6.0
141
12.0
290
     0
  0
SCALE
  5
68
102
{ACAD_REACTORS
330
47
102
}
330
47
100
AcDbScale
 70
     0
300
1'-0" = 1'-0"
140
12.0
141
12.0
290
     0
  0
TABLESTYLE
  5
6A
102
{ACAD_REACTORS
330
69
102
}
102
{ACAD_XDICTIONARY
360
3B5
102
}
330
69
100
AcDbTableStyle
  3
Standard
 70
     0
 71
     0
 40
0.06
 41
0.06
280
     0
281
     0
  7
Standard
140
0.18
170
     2
 62
     0
 63
   257
283
     0
 90
        4
 91
        0
  1

274
    -2
284
     1
 64
     0
275
    -2
285
     1
 65
     0
276
    -2
286
     1
 66
     0
277
    -2
287
     1
 67
     0
278
    -2
288
     1
 68
     0
279
    -2
289
     1
 69
     0
  7
Standard
140
0.25
170
     5
 62
     0
 63
   257
283
     0
 90
        4
 91
        0
  1

274
    -2
284
     1
 64
     0
275
    -2
285
     1
 65
     0
276
    -2
286
     1
 66
     0
277
    -2
287
     1
 67
     0
278
    -2
288
     1
 68
     0
279
    -2
289
     1
 69
     0
  7
Standard
140
0.18
170
     5
 62
     0
 63
   257
283
     0
 90
        4
 91
        0
  1

274
    -2
284
     1
 64
     0
275
    -2
285
     1
 65
     0
276
    -2
286
     1
 66
     0
277
    -2
287
     1
 67
     0
278
    -2
288
     1
 68
     0
279
    -2
289
     1
 69
     0
  0
VISUALSTYLE
  5
2F
102
{ACAD_REACTORS
330
2A
102
}
102
{ACAD_XDICTIONARY
360
38D
102
}
330
2A
100
AcDbVisualStyle
  2
2dWireframe
 70
     4
 71
     0
 72
     2
 73
     0
 90
        0
 40
0.6
 41
30.0
 62
     5
 63
     7
421
 16777215
 74
     1
 91
        4
 64
     7
 65
   257
 75
     1
175
     1
 42
1.0
 92
        0
 66
   257
 43
1.0
 76
     1
 77
     6
 78
     2
 67
     7
 79
     5
170
     0
171
     0
290
     0
174
     0
 93
        1
 44
0.0
173
     0
291
     0
 45
0.0
  0
VISUALSTYLE
  5
32
102
{ACAD_REACTORS
330
2A
102
}
102
{ACAD_XDICTIONARY
360
393
102
}
330
2A
100
AcDbVisualStyle
  2
Basic
 70
     7
 71
     1
 72
     0
 73
     1
 90
        0
 40
0.6
 41
30.0
 62
     5
 63
     7
421
 16777215
 74
     0
 91
        4
 64
     7
 65
   257
 75
     1
175
     1
 42
1.0
 92
        8
 66
     7
 43
1.0
 76
     1
 77
     6
 78
     2
 67
     7
 79
     5
170
     0
171
     0
290
     0
174
     0
 93
        1
 44
0.0
173
     0
291
     1
 45
0.0
  0
VISUALSTYLE
  5
36
102
{ACAD_REACTORS
330
2A
102
}
102
{ACAD_XDICTIONARY
360
39B
102
}
330
2A
100
AcDbVisualStyle
  2
Brighten
 70
    12
 71
     2
 72
     2
 73
     0
 90
        0
 40
0.6
 41
30.0
 62
     5
 63
     7
421
 16777215
 74
     1
 91
        4
 64
     7
 65
   257
 75
     1
175
     1
 42
1.0
 92
        8
 66
     7
 43
1.0
 76
     1
 77
     6
 78
     2
 67
     7
 79
     5
170
     0
171
     0
290
     0
174
     0
 93
        1
 44
50.0
173
     0
291
     1
 45
0.0
  0
VISUALSTYLE
  5
3A
102
{ACAD_REACTORS
330
2A
102
}
102
{ACAD_XDICTIONARY
360
3A3
102
}
330
2A
100
AcDbVisualStyle
  2
ColorChange
 70
    16
 71
     2
 72
     2
 73
     3
 90
        0
 40
0.6
 41
30.0
 62
     5
 63
     8
421
  8421504
 74
     1
 91
        4
 64
     7
 65
   257
 75
     1
175
     1
 42
1.0
 92
        8
 66
     8
424
  8421504
 43
1.0
 76
     1
 77
     6
 78
     2
 67
     7
 79
     5
170
     0
171
     0
290
     0
174
     0
 93
        1
 44
0.0
173
     0
291
     1
 45
0.0
  0
VISUALSTYLE
  5
34
102
{ACAD_REACTORS
330
2A
102
}
102
{ACAD_XDICTIONARY
360
397
102
}
330
2A
100
AcDbVisualStyle
  2
Conceptual
 70
     9
 71
     3
 72
     2
 73
     0
 90
        0
 40
0.6
 41
30.0
 62
     5
 63
     7
421
 16777215
 74
     2
 91
        2
 64
     7
 65
   257
 75
     1
175
     1
 42
179.0
 92
        8
 66
     7
 43
1.0
 76
     1
 77
     6
 78
     2
 67
     7
 79
     3
170
     0
171
     0
290
     0
174
     0
 93
        1
 44
0.0
173
     0
291
     0
 45
0.0
  0
VISUALSTYLE
  5
35
102
{ACAD_REACTORS
330
2A
102
}
102
{ACAD_XDICTIONARY
360
399
102
}
330
2A
100
AcDbVisualStyle
  2
Dim
 70
    11
 71
     2
 72
     2
 73
     0
 90
        0
 40
0.6
 41
30.0
 62
     5
 63
     7
421
 16777215
 74
     1
 91
        4
 64
     7
 65
   257
 75
     1
175
     1
 42
1.0
 92
        8
 66
     7
 43
1.0
 76
     1
 77
     6
 78
     2
 67
     7
 79
     5
170
     0
171
     0
290
     0
174
     0
 93
        1
 44
-50.0
173
     0
291
     1
 45
0.0
  0
VISUALSTYLE
  5
3D
102
{ACAD_REACTORS
330
2A
102
}
102
{ACAD_XDICTIONARY
360
3A9
102
}
330
2A
100
AcDbVisualStyle
  2
EdgeColorOff
 70
    22
 71
     2
 72
     2
 73
     0
 90
        0
 40
0.6
 41
30.0
 62
     5
 63
     7
421
 16777215
 74
     1
 91
        4
 64
     7
 65
   257
 75
     1
175
     1
 42
1.0
 92
        8
 66
     7
 43
1.0
 76
     1
 77
     6
 78
     2
 67
     7
 79
     5
170
     0
171
     0
290
     0
174
     0
 93
        1
 44
0.0
173
     0
291
     1
 45
0.0
  0
VISUALSTYLE
  5
39
102
{ACAD_REACTORS
330
2A
102
}
102
{ACAD_XDICTIONARY
360
3A1
102
}
330
2A
100
AcDbVisualStyle
  2
Facepattern
 70
    15
 71
     2
 72
     2
 73
     0
 90
        0
 40
0.6
 41
30.0
 62
     5
 63
     7
421
 16777215
 74
     1
 91
        4
 64
     7
 65
   257
 75
     1
175
     1
 42
1.0
 92
        8
 66
     7
 43
1.0
 76
     1
 77
     6
 78
     2
 67
     7
 79
     5
170
     0
171
     0
290
     0
174
     0
 93
        1
 44
0.0
173
     0
291
     1
 45
0.0
  0
VISUALSTYLE
  5
2B
102
{ACAD_REACTORS
330
2A
102
}
102
{ACAD_XDICTIONARY
360
385
102
}
330
2A
100
AcDbVisualStyle
  2
Flat
 70
     0
 71
     2
 72
     1
 73
     1
 90
        2
 40
0.6
 41
30.0
 62
     5
 63
     7
421
 16777215
 74
     0
 91
        0
 64
     7
 65
   257
 75
     1
175
     1
 42
1.0
 92
        8
 66
     7
 43
1.0
 76
     1
 77
     6
 78
     2
 67
     7
 79
     5
170
     0
171
     0
290
     0
174
     0
 93
       13
 44
0.0
173
     0
291
     1
 45
0.0
  0
VISUALSTYLE
  5
2C
102
{ACAD_REACTORS
330
2A
102
}
102
{ACAD_XDICTIONARY
360
387
102
}
330
2A
100
AcDbVisualStyle
  2
FlatWithEdges
 70
     1
 71
     2
 72
     1
 73
     1
 90
        2
 40
0.6
 41
30.0
 62
     5
 63
     7
421
 16777215
 74
     1
 91
        0
 64
     7
 65
   257
 75
     1
175
     1
 42
1.0
 92
        0
 66
   257
 43
1.0
 76
     1
 77
     6
 78
     2
 67
     7
 79
     5
170
     0
171
     0
290
     0
174
     0
 93
       13
 44
0.0
173
     0
291
     1
 45
0.0
  0
VISUALSTYLE
  5
2D
102
{ACAD_REACTORS
330
2A
102
}
102
{ACAD_XDICTIONARY
360
389
102
}
330
2A
100
AcDbVisualStyle
  2
Gouraud
 70
     2
 71
     2
 72
     2
 73
     1
 90
        2
 40
0.6
 41
30.0
 62
     5
 63
     7
421
 16777215
 74
     0
 91
        0
 64
     7
 65
   257
 75
     1
175
     1
 42
1.0
 92
        0
 66
     7
 43
1.0
 76
     1
 77
     6
 78
     2
 67
     7
 79
     5
170
     0
171
     0
290
     0
174
     0
 93
       13
 44
0.0
173
     0
291
     1
 45
0.0
  0
VISUALSTYLE
  5
2E
102
{ACAD_REACTORS
330
2A
102
}
102
{ACAD_XDICTIONARY
360
38B
102
}
330
2A
100
AcDbVisualStyle
  2
GouraudWithEdges
 70
     3
 71
     2
 72
     2
 73
     1
 90
        2
 40
0.6
 41
30.0
 62
     5
 63
     7
421
 16777215
 74
     1
 91
        0
 64
     7
 65
   257
 75
     1
175
     1
 42
1.0
 92
        0
 66
   257
 43
1.0
 76
     1
 77
     6
 78
     2
 67
     7
 79
     5
170
     0
171
     0
290
     0
174
     0
 93
       13
 44
0.0
173
     0
291
     1
 45
0.0
  0
VISUALSTYLE
  5
31
102
{ACAD_REACTORS
330
2A
102
}
102
{ACAD_XDICTIONARY
360
391
102
}
330
2A
100
AcDbVisualStyle
  2
Hidden
 70
     6
 71
     1
 72
     2
 73
     2
 90
        0
 40
0.6
 41
30.0
 62
     5
 63
     7
421
 16777215
 74
     2
 91
        2
 64
     7
 65
   257
 75
     2
175
     1
 42
40.0
 92
        0
 66
   257
 43
1.0
 76
     1
 77
     6
 78
     2
 67
     7
 79
     3
170
     0
171
     0
290
     0
174
     0
 93
        1
 44
0.0
173
     0
291
     0
 45
0.0
  0
VISUALSTYLE
  5
3B
102
{ACAD_REACTORS
330
2A
102
}
102
{ACAD_XDICTIONARY
360
3A5
102
}
330
2A
100
AcDbVisualStyle
  2
JitterOff
 70
    20
 71
     2
 72
     2
 73
     0
 90
        0
 40
0.6
 41
30.0
 62
     5
 63
     7
421
 16777215
 74
     1
 91
        4
 64
     7
 65
   257
 75
     1
175
     1
 42
1.0
 92
       10
 66
     7
 43
1.0
 76
     1
 77
     6
 78
     2
 67
     7
 79
     5
170
     0
171
     0
290
     0
174
     0
 93
        1
 44
0.0
173
     0
291
     1
 45
0.0
  0
VISUALSTYLE
  5
38
102
{ACAD_REACTORS
330
2A
102
}
102
{ACAD_XDICTIONARY
360
39F
102
}
330
2A
100
AcDbVisualStyle
  2
Linepattern
 70
    14
 71
     2
 72
     2
 73
     0
 90
        0
 40
0.6
 41
30.0
 62
     5
 63
     7
421
 16777215
 74
     1
 91
        4
 64
     7
 65
   257
 75
     7
175
     7
 42
1.0
 92
        8
 66
     7
 43
1.0
 76
     1
 77
     6
 78
     2
 67
     7
 79
     5
170
     0
171
     0
290
     0
174
     0
 93
        1
 44
0.0
173
     0
291
     1
 45
0.0
  0
VISUALSTYLE
  5
3C
102
{ACAD_REACTORS
330
2A
102
}
102
{ACAD_XDICTIONARY
360
3A7
102
}
330
2A
100
AcDbVisualStyle
  2
OverhangOff
 70
    21
 71
     2
 72
     2
 73
     0
 90
        0
 40
0.6
 41
30.0
 62
     5
 63
     7
421
 16777215
 74
     1
 91
        4
 64
     7
 65
   257
 75
     1
175
     1
 42
1.0
 92
        9
 66
     7
 43
1.0
 76
     1
 77
     6
 78
     2
 67
     7
 79
     5
170
     0
171
     0
290
     0
174
     0
 93
        1
 44
0.0
173
     0
291
     1
 45
0.0
  0
VISUALSTYLE
  5
33
102
{ACAD_REACTORS
330
2A
102
}
102
{ACAD_XDICTIONARY
360
395
102
}
330
2A
100
AcDbVisualStyle
  2
Realistic
 70
     8
 71
     2
 72
     3
 73
     0
 90
        2
 40
0.6
 41
30.0
 62
     5
 63
     7
421
 16777215
 74
     0
 91
        0
 64
     7
 65
   257
 75
     1
175
     1
 42
1.0
 92
        8
 66
   257
 43
1.0
 76
     1
 77
     6
 78
     2
 67
     7
 79
     3
170
     0
171
     0
290
     0
174
     0
 93
       13
 44
0.0
173
     0
291
     0
 45
0.0
  0
VISUALSTYLE
  5
42
102
{ACAD_REACTORS
330
2A
102
}
102
{ACAD_XDICTIONARY
360
3B3
102
}
330
2A
100
AcDbVisualStyle
  2
Shaded
 70
    27
 71
     2
 72
     2
 73
     1
 90
        2
 40
0.6
 41
30.0
 62
     5
 63
     7
421
 16777215
 74
     0
 91
        4
 64
     7
 65
   257
 75
     1
175
     1
 42
1.0
 92
        8
 66
   257
 43
1.0
 76
     1
 77
     6
 78
     2
 67
     8
425
  7895160
 79
     3
170
     0
171
     0
290
     0
174
     0
 93
        5
 44
0.0
173
     0
291
     0
 45
0.0
  0
VISUALSTYLE
  5
41
102
{ACAD_REACTORS
330
2A
102
}
102
{ACAD_XDICTIONARY
360
3B1
102
}
330
2A
100
AcDbVisualStyle
  2
Shaded with edges
 70
    26
 71
     2
 72
     2
 73
     1
 90
        2
 40
0.6
 41
30.0
 62
     5
 63
     7
421
 16777215
 74
     1
 91
       10
 64
     7
 65
   257
 75
     2
175
     1
 42
1.0
 92
        8
 66
   257
 43
1.0
 76
     1
 77
     6
 78
     2
 67
     7
 79
     3
170
     0
171
     0
290
     0
174
     0
 93
        5
 44
0.0
173
     0
291
     0
 45
0.0
  0
VISUALSTYLE
  5
3E
102
{ACAD_REACTORS
330
2A
102
}
102
{ACAD_XDICTIONARY
360
3AB
102
}
330
2A
100
AcDbVisualStyle
  2
Shades of Gray
 70
    23
 71
     2
 72
     2
 73
     3
 90
        0
 40
0.6
 41
30.0
 62
     5
 63
     7
421
 16777215
 74
     2
 91
        2
 64
     7
 65
     7
 75
     1
175
     1
 42
40.0
 92
        8
 66
     7
 43
1.0
 76
     1
 77
     6
 78
     2
 67
     7
 79
     3
170
     0
171
     0
290
     0
174
     0
 93
        1
 44
0.0
173
     0
291
     0
 45
0.0
  0
VISUALSTYLE
  5
3F
102
{ACAD_REACTORS
330
2A
102
}
102
{ACAD_XDICTIONARY
360
3AD
102
}
330
2A
100
AcDbVisualStyle
  2
Sketchy
 70
    24
 71
     1
 72
     2
 73
     2
 90
        0
 40
0.6
 41
30.0
 62
     5
 63
     7
421
 16777215
 74
     2
 91
        2
 64
     7
 65
     7
 75
     1
175
     1
 42
40.0
 92
       11
 66
     7
 43
1.0
 76
     1
 77
     6
 78
     2
 67
     7
 79
     6
170
     0
171
     0
290
     0
174
     0
 93
        1
 44
0.0
173
     0
291
     0
 45
0.0
  0
VISUALSTYLE
  5
37
102
{ACAD_REACTORS
330
2A
102
}
102
{ACAD_XDICTIONARY
360
39D
102
}
330
2A
100
AcDbVisualStyle
  2
Thicken
 70
    13
 71
     2
 72
     2
 73
     0
 90
        0
 40
0.6
 41
30.0
 62
     5
 63
     7
421
 16777215
 74
     1
 91
        4
 64
     7
 65
   257
 75
     1
175
     1
 42
1.0
 92
       12
 66
     7
 43
1.0
 76
     1
 77
     6
 78
     2
 67
     7
 79
     5
170
     0
171
     0
290
     0
174
     0
 93
        1
 44
0.0
173
     0
291
     1
 45
0.0
  0
VISUALSTYLE
  5
30
102
{ACAD_REACTORS
330
2A
102
}
102
{ACAD_XDICTIONARY
360
38F
102
}
330
2A
100
AcDbVisualStyle
  2
Wireframe
 70
     5
 71
     0
 72
     2
 73
     0
 90
        0
 40
0.6
 41
30.0
 62
     5
 63
     7
421
 16777215
 74
     1
 91
        4
 64
     7
 65
   257
 75
     1
175
     1
 42
1.0
 92
        0
 66
   257
 43
1.0
 76
     1
 77
     6
 78
     2
 67
     7
 79
     3
170
     0
171
     0
290
     0
174
     0
 93
        1
 44
0.0
173
     0
291
     0
 45
0.0
  0
VISUALSTYLE
  5
40
102
{ACAD_REACTORS
330
2A
102
}
102
{ACAD_XDICTIONARY
360
3AF
102
}
330
2A
100
AcDbVisualStyle
  2
X-Ray
 70
    25
 71
     2
 72
     2
 73
     1
 90
        1
 40
0.5
 41
30.0
 62
     5
 63
     7
421
 16777215
 74
     1
 91
        0
 64
     7
 65
   257
 75
     1
175
     1
 42
1.0
 92
        8
 66
     7
 43
1.0
 76
     1
 77
     6
 78
     2
 67
     7
 79
     3
170
     0
171
     0
290
     0
174
     0
 93
       13
 44
0.0
173
     0
291
     0
 45
0.0
  0
DICTIONARYVAR
  5
383
102
{ACAD_REACTORS
330
382
102
}
330
382
100
DictionaryVariables
280
     0
  1
1:1
  0
DICTIONARYVAR
  5
3BC
102
{ACAD_REACTORS
330
382
102
}
330
382
100
DictionaryVariables
280
     0
  1
Standard
  0
DICTIONARYVAR
  5
3BB
102
{ACAD_REACTORS
330
382
102
}
330
382
100
DictionaryVariables
280
     0
  1
Standard
  0
DICTIONARYVAR
  5
384
102
{ACAD_REACTORS
330
382
102
}
330
382
100
DictionaryVariables
280
     0
  1
2
  0
DICTIONARY
  5
3B8
330
6C
100
AcDbDictionary
280
     1
281
     1
  3
ACAD_XREC_ROUNDTRIP
360
3B9
  0
DICTIONARY
  5
3B5
330
6A
100
AcDbDictionary
280
     1
281
     1
  3
ACAD_ROUNDTRIP_2008_TABLESTYLE_CELLSTYLEMAP
360
3B6
  0
DICTIONARY
  5
38D
330
2F
100
AcDbDictionary
280
     1
281
     1
  3
ACAD_XREC_ROUNDTRIP
360
38E
  0
DICTIONARY
  5
393
330
32
100
AcDbDictionary
280
     1
281
     1
  3
ACAD_XREC_ROUNDTRIP
360
394
  0
DICTIONARY
  5
39B
330
36
100
AcDbDictionary
280
     1
281
     1
  3
ACAD_XREC_ROUNDTRIP
360
39C
  0
DICTIONARY
  5
3A3
330
3A
100
AcDbDictionary
280
     1
281
     1
  3
ACAD_XREC_ROUNDTRIP
360
3A4
  0
DICTIONARY
  5
397
330
34
100
AcDbDictionary
280
     1
281
     1
  3
ACAD_XREC_ROUNDTRIP
360
398
  0
DICTIONARY
  5
399
330
35
100
AcDbDictionary
280
     1
281
     1
  3
ACAD_XREC_ROUNDTRIP
360
39A
  0
DICTIONARY
  5
3A9
330
3D
100
AcDbDictionary
280
     1
281
     1
  3
ACAD_XREC_ROUNDTRIP
360
3AA
  0
DICTIONARY
  5
3A1
330
39
100
AcDbDictionary
280
     1
281
     1
  3
ACAD_XREC_ROUNDTRIP
360
3A2
  0
DICTIONARY
  5
385
330
2B
100
AcDbDictionary
280
     1
281
     1
  3
ACAD_XREC_ROUNDTRIP
360
386
  0
DICTIONARY
  5
387
330
2C
100
AcDbDictionary
280
     1
281
     1
  3
ACAD_XREC_ROUNDTRIP
360
388
  0
DICTIONARY
  5
389
330
2D
100
AcDbDictionary
280
     1
281
     1
  3
ACAD_XREC_ROUNDTRIP
360
38A
  0
DICTIONARY
  5
38B
330
2E
100
AcDbDictionary
280
     1
281
     1
  3
ACAD_XREC_ROUNDTRIP
360
38C
  0
DICTIONARY
  5
391
330
31
100
AcDbDictionary
280
     1
281
     1
  3
ACAD_XREC_ROUNDTRIP
360
392
  0
DICTIONARY
  5
3A5
330
3B
100
AcDbDictionary
280
     1
281
     1
  3
ACAD_XREC_ROUNDTRIP
360
3A6
  0
DICTIONARY
  5
39F
330
38
100
AcDbDictionary
280
     1
281
     1
  3
ACAD_XREC_ROUNDTRIP
360
3A0
  0
DICTIONARY
  5
3A7
330
3C
100
AcDbDictionary
280
     1
281
     1
  3
ACAD_XREC_ROUNDTRIP
360
3A8
  0
DICTIONARY
  5
395
330
33
100
AcDbDictionary
280
     1
281
     1
  3
ACAD_XREC_ROUNDTRIP
360
396
  0
DICTIONARY
  5
3B3
330
42
100
AcDbDictionary
280
     1
281
     1
  3
ACAD_XREC_ROUNDTRIP
360
3B4
  0
DICTIONARY
  5
3B1
330
41
100
AcDbDictionary
280
     1
281
     1
  3
ACAD_XREC_ROUNDTRIP
360
3B2
  0
DICTIONARY
  5
3AB
330
3E
100
AcDbDictionary
280
     1
281
     1
  3
ACAD_XREC_ROUNDTRIP
360
3AC
  0
DICTIONARY
  5
3AD
330
3F
100
AcDbDictionary
280
     1
281
     1
  3
ACAD_XREC_ROUNDTRIP
360
3AE
  0
DICTIONARY
  5
39D
330
37
100
AcDbDictionary
280
     1
281
     1
  3
ACAD_XREC_ROUNDTRIP
360
39E
  0
DICTIONARY
  5
38F
330
30
100
AcDbDictionary
280
     1
281
     1
  3
ACAD_XREC_ROUNDTRIP
360
390
  0
DICTIONARY
  5
3AF
330
40
100
AcDbDictionary
280
     1
281
     1
  3
ACAD_XREC_ROUNDTRIP
360
3B0
  0
XRECORD
  5
3B9
102
{ACAD_REACTORS
330
3B8
102
}
330
3B8
100
AcDbXrecord
280
     1
102
ACAD_ROUNDTRIP_2010_MLEADER_STYLE
  0
CELLSTYLEMAP
  5
3B6
102
{ACAD_REACTORS
330
3B5
102
}
330
3B5
100
AcDbCellStyleMap
 90
        3
300
CELLSTYLE
  1
TABLEFORMAT_BEGIN
 90
        5
170
     1
 91
        0
 92
    32768
 62
   257
 93
        1
300
CONTENTFORMAT
  1
CONTENTFORMAT_BEGIN
 90
        0
 91
        0
 92
        4
 93
        0
300

 40
0.0
140
1.0
 94
        5
 62
     0
340
11
144
0.25
309
CONTENTFORMAT_END
171
     1
301
MARGIN
  1
CELLMARGIN_BEGIN
 40
0.06
 40
0.06
 40
0.06
 40
0.06
 40
0.06
 40
0.06
309
CELLMARGIN_END
 94
        6
 95
        1
302
GRIDFORMAT
  1
GRIDFORMAT_BEGIN
 90
        0
 91
        1
 62
     0
 92
       -2
340
14
 93
        0
 40
0.045
309
GRIDFORMAT_END
 95
        2
302
GRIDFORMAT
  1
GRIDFORMAT_BEGIN
 90
        0
 91
        1
 62
     0
 92
       -2
340
14
 93
        0
 40
0.045
309
GRIDFORMAT_END
 95
        4
302
GRIDFORMAT
  1
GRIDFORMAT_BEGIN
 90
        0
 91
        1
 62
     0
 92
       -2
340
14
 93
        0
 40
0.045
309
GRIDFORMAT_END
 95
        8
302
GRIDFORMAT
  1
GRIDFORMAT_BEGIN
 90
        0
 91
        1
 62
     0
 92
       -2
340
14
 93
        0
 40
0.045
309
GRIDFORMAT_END
 95
       16
302
GRIDFORMAT
  1
GRIDFORMAT_BEGIN
 90
        0
 91
        1
 62
     0
 92
       -2
340
14
 93
        0
 40
0.045
309
GRIDFORMAT_END
 95
       32
302
GRIDFORMAT
  1
GRIDFORMAT_BEGIN
 90
        0
 91
        1
 62
     0
 92
       -2
340
14
 93
        0
 40
0.045
309
GRIDFORMAT_END
309
TABLEFORMAT_END
  1
CELLSTYLE_BEGIN
 90
        1
 91
        1
300
_TITLE
309
CELLSTYLE_END
300
CELLSTYLE
  1
TABLEFORMAT_BEGIN
 90
        5
170
     1
 91
        0
 92
        0
 62
   257
 93
        1
300
CONTENTFORMAT
  1
CONTENTFORMAT_BEGIN
 90
        0
 91
        0
 92
        4
 93
        0
300

 40
0.0
140
1.0
 94
        5
 62
     0
340
11
144
0.18
309
CONTENTFORMAT_END
171
     1
301
MARGIN
  1
CELLMARGIN_BEGIN
 40
0.06
 40
0.06
 40
0.06
 40
0.06
 40
0.06
 40
0.06
309
CELLMARGIN_END
 94
        6
 95
        1
302
GRIDFORMAT
  1
GRIDFORMAT_BEGIN
 90
        0
 91
        1
 62
     0
 92
       -2
340
14
 93
        0
 40
0.045
309
GRIDFORMAT_END
 95
        2
302
GRIDFORMAT
  1
GRIDFORMAT_BEGIN
 90
        0
 91
        1
 62
     0
 92
       -2
340
14
 93
        0
 40
0.045
309
GRIDFORMAT_END
 95
        4
302
GRIDFORMAT
  1
GRIDFORMAT_BEGIN
 90
        0
 91
        1
 62
     0
 92
       -2
340
14
 93
        0
 40
0.045
309
GRIDFORMAT_END
 95
        8
302
GRIDFORMAT
  1
GRIDFORMAT_BEGIN
 90
        0
 91
        1
 62
     0
 92
       -2
340
14
 93
        0
 40
0.045
309
GRIDFORMAT_END
 95
       16
302
GRIDFORMAT
  1
GRIDFORMAT_BEGIN
 90
        0
 91
        1
 62
     0
 92
       -2
340
14
 93
        0
 40
0.045
309
GRIDFORMAT_END
 95
       32
302
GRIDFORMAT
  1
GRIDFORMAT_BEGIN
 90
        0
 91
        1
 62
     0
 92
       -2
340
14
 93
        0
 40
0.045
309
GRIDFORMAT_END
309
TABLEFORMAT_END
  1
CELLSTYLE_BEGIN
 90
        2
 91
        1
300
_HEADER
309
CELLSTYLE_END
300
CELLSTYLE
  1
TABLEFORMAT_BEGIN
 90
        5
170
     1
 91
        0
 92
        0
 62
   257
 93
        1
300
CONTENTFORMAT
  1
CONTENTFORMAT_BEGIN
 90
        0
 91
        0
 92
        4
 93
        0
300

 40
0.0
140
1.0
 94
        2
 62
     0
340
11
144
0.18
309
CONTENTFORMAT_END
171
     1
301
MARGIN
  1
CELLMARGIN_BEGIN
 40
0.06
 40
0.06
 40
0.06
 40
0.06
 40
0.06
 40
0.06
309
CELLMARGIN_END
 94
        6
 95
        1
302
GRIDFORMAT
  1
GRIDFORMAT_BEGIN
 90
        0
 91
        1
 62
     0
 92
       -2
340
14
 93
        0
 40
0.045
309
GRIDFORMAT_END
 95
        2
302
GRIDFORMAT
  1
GRIDFORMAT_BEGIN
 90
        0
 91
        1
 62
     0
 92
       -2
340
14
 93
        0
 40
0.045
309
GRIDFORMAT_END
 95
        4
302
GRIDFORMAT
  1
GRIDFORMAT_BEGIN
 90
        0
 91
        1
 62
     0
 92
       -2
340
14
 93
        0
 40
0.045
309
GRIDFORMAT_END
 95
        8
302
GRIDFORMAT
  1
GRIDFORMAT_BEGIN
 90
        0
 91
        1
 62
     0
 92
       -2
340
14
 93
        0
 40
0.045
309
GRIDFORMAT_END
 95
       16
302
GRIDFORMAT
  1
GRIDFORMAT_BEGIN
 90
        0
 91
        1
 62
     0
 92
       -2
340
14
 93
        0
 40
0.045
309
GRIDFORMAT_END
 95
       32
302
GRIDFORMAT
  1
GRIDFORMAT_BEGIN
 90
        0
 91
        1
 62
     0
 92
       -2
340
14
 93
        0
 40
0.045
309
GRIDFORMAT_END
309
TABLEFORMAT_END
  1
CELLSTYLE_BEGIN
 90
        3
 91
        2
300
_DATA
309
CELLSTYLE_END
  0
XRECORD
  5
38E
102
{ACAD_REACTORS
330
38D
102
}
330
38D
100
AcDbXrecord
280
     1
102
RTVSPropertyOp0
 70
     1
102
RTVSPropertyOp1
 70
     1
102
RTVSPropertyOp2
 70
     1
102
RTVSPropertyOp3
 70
     1
102
RTVSPropertyOp4
 70
     1
102
RTVSPropertyOp5
 70
     1
102
RTVSPropertyOp6
 70
     1
102
RTVSPropertyOp7
 70
     1
102
RTVSPropertyOp8
 70
     1
102
RTVSPropertyOp9
 70
     1
102
RTVSPropertyOp10
 70
     1
102
RTVSPropertyOp11
 70
     1
102
RTVSPropertyOp12
 70
     1
102
RTVSPropertyOp13
 70
     1
102
RTVSPropertyOp14
 70
     1
102
RTVSPropertyOp15
 70
     1
102
RTVSPropertyOp16
 70
     1
102
RTVSPropertyOp17
 70
     1
102
RTVSPropertyOp18
 70
     1
102
RTVSPropertyOp19
 70
     1
102
RTVSPropertyOp20
 70
     1
102
RTVSPropertyOp21
 70
     1
102
RTVSPropertyOp22
 70
     1
102
RTVSPropertyOp23
 70
     1
102
RTVSPropertyOp24
 70
     1
102
RTVSPropertyOp25
 70
     1
102
RTVSPropertyOp26
 70
     1
102
RTVSPropertyOp27
 70
     1
102
RTVSPropertyOp28
 70
     1
102
RTVSPropertyOp29
 70
     1
102
RTVSPropertyOp30
 70
     1
102
RTVSPropertyOp31
 70
     1
102
RTVSPropertyOp32
 70
     1
102
RTVSPropertyOp33
 70
     1
102
RTVSPropertyOp34
 70
     1
102
RTVSPropertyOp35
 70
     1
102
RTVSPropertyOp36
 70
     1
102
RTVSPropertyOp37
 70
     1
102
RTVSPropertyOp38
 70
     1
102
RTVSPropertyOp39
 70
     1
102
RTVSPropertyOp40
 70
     1
102
RTVSPropertyOp41
 70
     1
102
RTVSPropertyOp42
 70
     1
102
RTVSPropertyOp43
 70
     1
102
RTVSPropertyOp44
 70
     1
102
RTVSPropertyOp45
 70
     1
102
RTVSPropertyOp46
 70
     1
102
RTVSPropertyOp47
 70
     1
102
RTVSPropertyOp48
 70
     1
102
RTVSPropertyOp49
 70
     1
102
RTVSPropertyOp50
 70
     1
102
RTVSPropertyOp51
 70
     0
102
RTVSPropertyOp52
 70
     0
102
RTVSPropertyOp53
 70
     1
102
RTVSPropertyOp54
 70
     1
102
RTVSPropertyOp55
 70
     1
102
RTVSPropertyOp56
 70
     1
102
RTVSPropertyOp57
 70
     1
102
RTVSPost2010Prop28
280
     1
102
RTVSPost2010PropOp28
 70
     1
102
RTVSPost2010Prop29
280
     1
102
RTVSPost2010PropOp29
 70
     1
102
RTVSPost2010Prop30
280
     0
102
RTVSPost2010PropOp30
 70
     1
102
RTVSPost2010Prop31
280
     0
102
RTVSPost2010PropOp31
 70
     1
102
RTVSPost2010Prop32
280
     0
102
RTVSPost2010PropOp32
 70
     1
102
RTVSPost2010Prop33
280
     0
102
RTVSPost2010PropOp33
 70
     1
102
RTVSPost2010Prop34
280
     0
102
RTVSPost2010PropOp34
 70
     1
102
RTVSPost2010Prop35
280
     0
102
RTVSPost2010PropOp35
 70
     1
102
RTVSPost2010Prop36
280
     0
102
RTVSPost2010PropOp36
 70
     1
102
RTVSPost2010Prop37
 90
       50
102
RTVSPost2010PropOp37
 70
     1
102
RTVSPost2010Prop38
140
0.0
102
RTVSPost2010PropOp38
 70
     1
102
RTVSPost2010Prop39
140
1.0
102
RTVSPost2010PropOp39
 70
     1
102
RTVSPost2010Prop40
 90
        0
102
RTVSPost2010PropOp40
 70
     1
102
RTVSPost2010Prop41ColorIndex
 90
       18
102
RTVSPost2010Prop41ColorRGB
 90
        0
102
RTVSPost2010PropOp41
 70
     1
102
RTVSPost2010Prop42
 90
       50
102
RTVSPost2010PropOp42
 70
     1
102
RTVSPost2010Prop43
 90
        3
102
RTVSPost2010PropOp43
 70
     1
102
RTVSPost2010Prop44ColorIndex
 90
        5
102
RTVSPost2010Prop44ColorRGB
 90
      255
102
RTVSPost2010PropOp44
 70
     1
102
RTVSPost2010Prop45
280
     0
102
RTVSPost2010PropOp45
 70
     1
102
RTVSPost2010Prop46
 90
       50
102
RTVSPost2010PropOp46
 70
     1
102
RTVSPost2010Prop47
 90
       50
102
RTVSPost2010PropOp47
 70
     1
102
RTVSPost2010Prop48
 90
       50
102
RTVSPost2010PropOp48
 70
     1
102
RTVSPost2010Prop49
280
     0
102
RTVSPost2010PropOp49
 70
     1
102
RTVSPost2010Prop50
 90
       50
102
RTVSPost2010PropOp50
 70
     1
102
RTVSPost2010Prop51ColorIndex
 90
      256
102
RTVSPost2010Prop51ColorRGB
 90
-16777216
102
RTVSPost2010PropOp51
 70
     0
102
RTVSPost2010Prop52
140
1.0
102
RTVSPost2010PropOp52
 70
     0
102
RTVSPost2010Prop53
 90
        2
102
RTVSPost2010PropOp53
 70
     1
102
RTVSPost2010Prop54
  1
strokes_ogs.tif
102
RTVSPost2010PropOp54
 70
     1
102
RTVSPost2010Prop55
280
     0
102
RTVSPost2010PropOp55
 70
     1
102
RTVSPost2010Prop56
140
1.0
102
RTVSPost2010PropOp56
 70
     1
102
RTVSPost2010Prop57
140
1.0
102
RTVSPost2010PropOp57
 70
     1
  0
XRECORD
  5
394
102
{ACAD_REACTORS
330
393
102
}
330
393
100
AcDbXrecord
280
     1
102
RTVSPropertyOp0
 70
     1
102
RTVSPropertyOp1
 70
     1
102
RTVSPropertyOp2
 70
     1
102
RTVSPropertyOp3
 70
     1
102
RTVSPropertyOp4
 70
     1
102
RTVSPropertyOp5
 70
     1
102
RTVSPropertyOp6
 70
     1
102
RTVSPropertyOp7
 70
     1
102
RTVSPropertyOp8
 70
     1
102
RTVSPropertyOp9
 70
     1
102
RTVSPropertyOp10
 70
     1
102
RTVSPropertyOp11
 70
     1
102
RTVSPropertyOp12
 70
     1
102
RTVSPropertyOp13
 70
     1
102
RTVSPropertyOp14
 70
     1
102
RTVSPropertyOp15
 70
     1
102
RTVSPropertyOp16
 70
     1
102
RTVSPropertyOp17
 70
     1
102
RTVSPropertyOp18
 70
     1
102
RTVSPropertyOp19
 70
     1
102
RTVSPropertyOp20
 70
     1
102
RTVSPropertyOp21
 70
     1
102
RTVSPropertyOp22
 70
     1
102
RTVSPropertyOp23
 70
     1
102
RTVSPropertyOp24
 70
     1
102
RTVSPropertyOp25
 70
     1
102
RTVSPropertyOp26
 70
     1
102
RTVSPropertyOp27
 70
     1
102
RTVSPropertyOp28
 70
     1
102
RTVSPropertyOp29
 70
     1
102
RTVSPropertyOp30
 70
     1
102
RTVSPropertyOp31
 70
     1
102
RTVSPropertyOp32
 70
     1
102
RTVSPropertyOp33
 70
     1
102
RTVSPropertyOp34
 70
     1
102
RTVSPropertyOp35
 70
     1
102
RTVSPropertyOp36
 70
     1
102
RTVSPropertyOp37
 70
     1
102
RTVSPropertyOp38
 70
     1
102
RTVSPropertyOp39
 70
     1
102
RTVSPropertyOp40
 70
     1
102
RTVSPropertyOp41
 70
     1
102
RTVSPropertyOp42
 70
     1
102
RTVSPropertyOp43
 70
     1
102
RTVSPropertyOp44
 70
     1
102
RTVSPropertyOp45
 70
     1
102
RTVSPropertyOp46
 70
     1
102
RTVSPropertyOp47
 70
     1
102
RTVSPropertyOp48
 70
     1
102
RTVSPropertyOp49
 70
     1
102
RTVSPropertyOp50
 70
     1
102
RTVSPropertyOp51
 70
     0
102
RTVSPropertyOp52
 70
     0
102
RTVSPropertyOp53
 70
     1
102
RTVSPropertyOp54
 70
     1
102
RTVSPropertyOp55
 70
     1
102
RTVSPropertyOp56
 70
     1
102
RTVSPropertyOp57
 70
     1
102
RTVSPost2010Prop28
280
     0
102
RTVSPost2010PropOp28
 70
     1
102
RTVSPost2010Prop29
280
     1
102
RTVSPost2010PropOp29
 70
     1
102
RTVSPost2010Prop30
280
     1
102
RTVSPost2010PropOp30
 70
     1
102
RTVSPost2010Prop31
280
     0
102
RTVSPost2010PropOp31
 70
     1
102
RTVSPost2010Prop32
280
     0
102
RTVSPost2010PropOp32
 70
     1
102
RTVSPost2010Prop33
280
     0
102
RTVSPost2010PropOp33
 70
     1
102
RTVSPost2010Prop34
280
     0
102
RTVSPost2010PropOp34
 70
     1
102
RTVSPost2010Prop35
280
     0
102
RTVSPost2010PropOp35
 70
     1
102
RTVSPost2010Prop36
280
     0
102
RTVSPost2010PropOp36
 70
     1
102
RTVSPost2010Prop37
 90
       50
102
RTVSPost2010PropOp37
 70
     1
102
RTVSPost2010Prop38
140
0.0
102
RTVSPost2010PropOp38
 70
     1
102
RTVSPost2010Prop39
140
1.0
102
RTVSPost2010PropOp39
 70
     1
102
RTVSPost2010Prop40
 90
        0
102
RTVSPost2010PropOp40
 70
     1
102
RTVSPost2010Prop41ColorIndex
 90
       18
102
RTVSPost2010Prop41ColorRGB
 90
        0
102
RTVSPost2010PropOp41
 70
     1
102
RTVSPost2010Prop42
 90
       50
102
RTVSPost2010PropOp42
 70
     1
102
RTVSPost2010Prop43
 90
        3
102
RTVSPost2010PropOp43
 70
     1
102
RTVSPost2010Prop44ColorIndex
 90
        5
102
RTVSPost2010Prop44ColorRGB
 90
      255
102
RTVSPost2010PropOp44
 70
     1
102
RTVSPost2010Prop45
280
     0
102
RTVSPost2010PropOp45
 70
     1
102
RTVSPost2010Prop46
 90
       50
102
RTVSPost2010PropOp46
 70
     1
102
RTVSPost2010Prop47
 90
       50
102
RTVSPost2010PropOp47
 70
     1
102
RTVSPost2010Prop48
 90
       50
102
RTVSPost2010PropOp48
 70
     1
102
RTVSPost2010Prop49
280
     0
102
RTVSPost2010PropOp49
 70
     1
102
RTVSPost2010Prop50
 90
       50
102
RTVSPost2010PropOp50
 70
     1
102
RTVSPost2010Prop51ColorIndex
 90
      256
102
RTVSPost2010Prop51ColorRGB
 90
-16777216
102
RTVSPost2010PropOp51
 70
     0
102
RTVSPost2010Prop52
140
1.0
102
RTVSPost2010PropOp52
 70
     0
102
RTVSPost2010Prop53
 90
        2
102
RTVSPost2010PropOp53
 70
     1
102
RTVSPost2010Prop54
  1
strokes_ogs.tif
102
RTVSPost2010PropOp54
 70
     1
102
RTVSPost2010Prop55
280
     0
102
RTVSPost2010PropOp55
 70
     1
102
RTVSPost2010Prop56
140
1.0
102
RTVSPost2010PropOp56
 70
     1
102
RTVSPost2010Prop57
140
1.0
102
RTVSPost2010PropOp57
 70
     1
  0
XRECORD
  5
39C
102
{ACAD_REACTORS
330
39B
102
}
330
39B
100
AcDbXrecord
280
     1
102
RTVSPropertyOp0
 70
     1
102
RTVSPropertyOp1
 70
     1
102
RTVSPropertyOp2
 70
     1
102
RTVSPropertyOp3
 70
     1
102
RTVSPropertyOp4
 70
     1
102
RTVSPropertyOp5
 70
     1
102
RTVSPropertyOp6
 70
     1
102
RTVSPropertyOp7
 70
     1
102
RTVSPropertyOp8
 70
     1
102
RTVSPropertyOp9
 70
     1
102
RTVSPropertyOp10
 70
     1
102
RTVSPropertyOp11
 70
     1
102
RTVSPropertyOp12
 70
     1
102
RTVSPropertyOp13
 70
     1
102
RTVSPropertyOp14
 70
     1
102
RTVSPropertyOp15
 70
     1
102
RTVSPropertyOp16
 70
     1
102
RTVSPropertyOp17
 70
     1
102
RTVSPropertyOp18
 70
     1
102
RTVSPropertyOp19
 70
     1
102
RTVSPropertyOp20
 70
     1
102
RTVSPropertyOp21
 70
     1
102
RTVSPropertyOp22
 70
     1
102
RTVSPropertyOp23
 70
     1
102
RTVSPropertyOp24
 70
     1
102
RTVSPropertyOp25
 70
     1
102
RTVSPropertyOp26
 70
     1
102
RTVSPropertyOp27
 70
     1
102
RTVSPropertyOp28
 70
     1
102
RTVSPropertyOp29
 70
     1
102
RTVSPropertyOp30
 70
     1
102
RTVSPropertyOp31
 70
     1
102
RTVSPropertyOp32
 70
     1
102
RTVSPropertyOp33
 70
     1
102
RTVSPropertyOp34
 70
     1
102
RTVSPropertyOp35
 70
     1
102
RTVSPropertyOp36
 70
     1
102
RTVSPropertyOp37
 70
     1
102
RTVSPropertyOp38
 70
     1
102
RTVSPropertyOp39
 70
     1
102
RTVSPropertyOp40
 70
     1
102
RTVSPropertyOp41
 70
     1
102
RTVSPropertyOp42
 70
     1
102
RTVSPropertyOp43
 70
     1
102
RTVSPropertyOp44
 70
     1
102
RTVSPropertyOp45
 70
     1
102
RTVSPropertyOp46
 70
     1
102
RTVSPropertyOp47
 70
     1
102
RTVSPropertyOp48
 70
     1
102
RTVSPropertyOp49
 70
     1
102
RTVSPropertyOp50
 70
     1
102
RTVSPropertyOp51
 70
     0
102
RTVSPropertyOp52
 70
     0
102
RTVSPropertyOp53
 70
     1
102
RTVSPropertyOp54
 70
     1
102
RTVSPropertyOp55
 70
     1
102
RTVSPropertyOp56
 70
     1
102
RTVSPropertyOp57
 70
     1
102
RTVSPost2010Prop28
280
     0
102
RTVSPost2010PropOp28
 70
     1
102
RTVSPost2010Prop29
280
     1
102
RTVSPost2010PropOp29
 70
     1
102
RTVSPost2010Prop30
280
     1
102
RTVSPost2010PropOp30
 70
     1
102
RTVSPost2010Prop31
280
     0
102
RTVSPost2010PropOp31
 70
     1
102
RTVSPost2010Prop32
280
     0
102
RTVSPost2010PropOp32
 70
     1
102
RTVSPost2010Prop33
280
     0
102
RTVSPost2010PropOp33
 70
     1
102
RTVSPost2010Prop34
280
     0
102
RTVSPost2010PropOp34
 70
     1
102
RTVSPost2010Prop35
280
     0
102
RTVSPost2010PropOp35
 70
     1
102
RTVSPost2010Prop36
280
     0
102
RTVSPost2010PropOp36
 70
     1
102
RTVSPost2010Prop37
 90
       50
102
RTVSPost2010PropOp37
 70
     1
102
RTVSPost2010Prop38
140
0.0
102
RTVSPost2010PropOp38
 70
     1
102
RTVSPost2010Prop39
140
1.0
102
RTVSPost2010PropOp39
 70
     1
102
RTVSPost2010Prop40
 90
        0
102
RTVSPost2010PropOp40
 70
     1
102
RTVSPost2010Prop41ColorIndex
 90
       18
102
RTVSPost2010Prop41ColorRGB
 90
        0
102
RTVSPost2010PropOp41
 70
     1
102
RTVSPost2010Prop42
 90
       50
102
RTVSPost2010PropOp42
 70
     1
102
RTVSPost2010Prop43
 90
        3
102
RTVSPost2010PropOp43
 70
     1
102
RTVSPost2010Prop44ColorIndex
 90
        5
102
RTVSPost2010Prop44ColorRGB
 90
      255
102
RTVSPost2010PropOp44
 70
     1
102
RTVSPost2010Prop45
280
     0
102
RTVSPost2010PropOp45
 70
     1
102
RTVSPost2010Prop46
 90
       50
102
RTVSPost2010PropOp46
 70
     1
102
RTVSPost2010Prop47
 90
       50
102
RTVSPost2010PropOp47
 70
     1
102
RTVSPost2010Prop48
 90
       50
102
RTVSPost2010PropOp48
 70
     1
102
RTVSPost2010Prop49
280
     0
102
RTVSPost2010PropOp49
 70
     1
102
RTVSPost2010Prop50
 90
       50
102
RTVSPost2010PropOp50
 70
     1
102
RTVSPost2010Prop51ColorIndex
 90
      256
102
RTVSPost2010Prop51ColorRGB
 90
-16777216
102
RTVSPost2010PropOp51
 70
     0
102
RTVSPost2010Prop52
140
1.0
102
RTVSPost2010PropOp52
 70
     0
102
RTVSPost2010Prop53
 90
        2
102
RTVSPost2010PropOp53
 70
     1
102
RTVSPost2010Prop54
  1
strokes_ogs.tif
102
RTVSPost2010PropOp54
 70
     1
102
RTVSPost2010Prop55
280
     0
102
RTVSPost2010PropOp55
 70
     1
102
RTVSPost2010Prop56
140
1.0
102
RTVSPost2010PropOp56
 70
     1
102
RTVSPost2010Prop57
140
1.0
102
RTVSPost2010PropOp57
 70
     1
  0
XRECORD
  5
3A4
102
{ACAD_REACTORS
330
3A3
102
}
330
3A3
100
AcDbXrecord
280
     1
102
RTVSPropertyOp0
 70
     1
102
RTVSPropertyOp1
 70
     1
102
RTVSPropertyOp2
 70
     1
102
RTVSPropertyOp3
 70
     1
102
RTVSPropertyOp4
 70
     1
102
RTVSPropertyOp5
 70
     1
102
RTVSPropertyOp6
 70
     1
102
RTVSPropertyOp7
 70
     1
102
RTVSPropertyOp8
 70
     1
102
RTVSPropertyOp9
 70
     1
102
RTVSPropertyOp10
 70
     1
102
RTVSPropertyOp11
 70
     1
102
RTVSPropertyOp12
 70
     1
102
RTVSPropertyOp13
 70
     1
102
RTVSPropertyOp14
 70
     1
102
RTVSPropertyOp15
 70
     1
102
RTVSPropertyOp16
 70
     1
102
RTVSPropertyOp17
 70
     1
102
RTVSPropertyOp18
 70
     1
102
RTVSPropertyOp19
 70
     1
102
RTVSPropertyOp20
 70
     1
102
RTVSPropertyOp21
 70
     1
102
RTVSPropertyOp22
 70
     1
102
RTVSPropertyOp23
 70
     1
102
RTVSPropertyOp24
 70
     1
102
RTVSPropertyOp25
 70
     1
102
RTVSPropertyOp26
 70
     1
102
RTVSPropertyOp27
 70
     1
102
RTVSPropertyOp28
 70
     1
102
RTVSPropertyOp29
 70
     1
102
RTVSPropertyOp30
 70
     1
102
RTVSPropertyOp31
 70
     1
102
RTVSPropertyOp32
 70
     1
102
RTVSPropertyOp33
 70
     1
102
RTVSPropertyOp34
 70
     1
102
RTVSPropertyOp35
 70
     1
102
RTVSPropertyOp36
 70
     1
102
RTVSPropertyOp37
 70
     1
102
RTVSPropertyOp38
 70
     1
102
RTVSPropertyOp39
 70
     1
102
RTVSPropertyOp40
 70
     1
102
RTVSPropertyOp41
 70
     1
102
RTVSPropertyOp42
 70
     1
102
RTVSPropertyOp43
 70
     1
102
RTVSPropertyOp44
 70
     1
102
RTVSPropertyOp45
 70
     1
102
RTVSPropertyOp46
 70
     1
102
RTVSPropertyOp47
 70
     1
102
RTVSPropertyOp48
 70
     1
102
RTVSPropertyOp49
 70
     1
102
RTVSPropertyOp50
 70
     1
102
RTVSPropertyOp51
 70
     0
102
RTVSPropertyOp52
 70
     0
102
RTVSPropertyOp53
 70
     1
102
RTVSPropertyOp54
 70
     1
102
RTVSPropertyOp55
 70
     1
102
RTVSPropertyOp56
 70
     1
102
RTVSPropertyOp57
 70
     1
102
RTVSPost2010Prop28
280
     0
102
RTVSPost2010PropOp28
 70
     1
102
RTVSPost2010Prop29
280
     1
102
RTVSPost2010PropOp29
 70
     1
102
RTVSPost2010Prop30
280
     1
102
RTVSPost2010PropOp30
 70
     1
102
RTVSPost2010Prop31
280
     0
102
RTVSPost2010PropOp31
 70
     1
102
RTVSPost2010Prop32
280
     0
102
RTVSPost2010PropOp32
 70
     1
102
RTVSPost2010Prop33
280
     0
102
RTVSPost2010PropOp33
 70
     1
102
RTVSPost2010Prop34
280
     0
102
RTVSPost2010PropOp34
 70
     1
102
RTVSPost2010Prop35
280
     0
102
RTVSPost2010PropOp35
 70
     1
102
RTVSPost2010Prop36
280
     0
102
RTVSPost2010PropOp36
 70
     1
102
RTVSPost2010Prop37
 90
       50
102
RTVSPost2010PropOp37
 70
     1
102
RTVSPost2010Prop38
140
0.0
102
RTVSPost2010PropOp38
 70
     1
102
RTVSPost2010Prop39
140
1.0
102
RTVSPost2010PropOp39
 70
     1
102
RTVSPost2010Prop40
 90
        0
102
RTVSPost2010PropOp40
 70
     1
102
RTVSPost2010Prop41ColorIndex
 90
       18
102
RTVSPost2010Prop41ColorRGB
 90
        0
102
RTVSPost2010PropOp41
 70
     1
102
RTVSPost2010Prop42
 90
       50
102
RTVSPost2010PropOp42
 70
     1
102
RTVSPost2010Prop43
 90
        3
102
RTVSPost2010PropOp43
 70
     1
102
RTVSPost2010Prop44ColorIndex
 90
        5
102
RTVSPost2010Prop44ColorRGB
 90
      255
102
RTVSPost2010PropOp44
 70
     1
102
RTVSPost2010Prop45
280
     0
102
RTVSPost2010PropOp45
 70
     1
102
RTVSPost2010Prop46
 90
       50
102
RTVSPost2010PropOp46
 70
     1
102
RTVSPost2010Prop47
 90
       50
102
RTVSPost2010PropOp47
 70
     1
102
RTVSPost2010Prop48
 90
       50
102
RTVSPost2010PropOp48
 70
     1
102
RTVSPost2010Prop49
280
     0
102
RTVSPost2010PropOp49
 70
     1
102
RTVSPost2010Prop50
 90
       50
102
RTVSPost2010PropOp50
 70
     1
102
RTVSPost2010Prop51ColorIndex
 90
      256
102
RTVSPost2010Prop51ColorRGB
 90
-16777216
102
RTVSPost2010PropOp51
 70
     0
102
RTVSPost2010Prop52
140
1.0
102
RTVSPost2010PropOp52
 70
     0
102
RTVSPost2010Prop53
 90
        2
102
RTVSPost2010PropOp53
 70
     1
102
RTVSPost2010Prop54
  1
strokes_ogs.tif
102
RTVSPost2010PropOp54
 70
     1
102
RTVSPost2010Prop55
280
     0
102
RTVSPost2010PropOp55
 70
     1
102
RTVSPost2010Prop56
140
1.0
102
RTVSPost2010PropOp56
 70
     1
102
RTVSPost2010Prop57
140
1.0
102
RTVSPost2010PropOp57
 70
     1
  0
XRECORD
  5
398
102
{ACAD_REACTORS
330
397
102
}
330
397
100
AcDbXrecord
280
     1
102
RTVSPropertyOp0
 70
     1
102
RTVSPropertyOp1
 70
     1
102
RTVSPropertyOp2
 70
     1
102
RTVSPropertyOp3
 70
     1
102
RTVSPropertyOp4
 70
     1
102
RTVSPropertyOp5
 70
     1
102
RTVSPropertyOp6
 70
     1
102
RTVSPropertyOp7
 70
     1
102
RTVSPropertyOp8
 70
     1
102
RTVSPropertyOp9
 70
     1
102
RTVSPropertyOp10
 70
     1
102
RTVSPropertyOp11
 70
     1
102
RTVSPropertyOp12
 70
     1
102
RTVSPropertyOp13
 70
     1
102
RTVSPropertyOp14
 70
     1
102
RTVSPropertyOp15
 70
     1
102
RTVSPropertyOp16
 70
     1
102
RTVSPropertyOp17
 70
     1
102
RTVSPropertyOp18
 70
     1
102
RTVSPropertyOp19
 70
     1
102
RTVSPropertyOp20
 70
     1
102
RTVSPropertyOp21
 70
     1
102
RTVSPropertyOp22
 70
     1
102
RTVSPropertyOp23
 70
     1
102
RTVSPropertyOp24
 70
     1
102
RTVSPropertyOp25
 70
     1
102
RTVSPropertyOp26
 70
     1
102
RTVSPropertyOp27
 70
     1
102
RTVSPropertyOp28
 70
     1
102
RTVSPropertyOp29
 70
     1
102
RTVSPropertyOp30
 70
     1
102
RTVSPropertyOp31
 70
     1
102
RTVSPropertyOp32
 70
     1
102
RTVSPropertyOp33
 70
     1
102
RTVSPropertyOp34
 70
     1
102
RTVSPropertyOp35
 70
     1
102
RTVSPropertyOp36
 70
     1
102
RTVSPropertyOp37
 70
     1
102
RTVSPropertyOp38
 70
     1
102
RTVSPropertyOp39
 70
     1
102
RTVSPropertyOp40
 70
     1
102
RTVSPropertyOp41
 70
     1
102
RTVSPropertyOp42
 70
     1
102
RTVSPropertyOp43
 70
     1
102
RTVSPropertyOp44
 70
     1
102
RTVSPropertyOp45
 70
     1
102
RTVSPropertyOp46
 70
     1
102
RTVSPropertyOp47
 70
     1
102
RTVSPropertyOp48
 70
     1
102
RTVSPropertyOp49
 70
     1
102
RTVSPropertyOp50
 70
     1
102
RTVSPropertyOp51
 70
     0
102
RTVSPropertyOp52
 70
     0
102
RTVSPropertyOp53
 70
     1
102
RTVSPropertyOp54
 70
     1
102
RTVSPropertyOp55
 70
     1
102
RTVSPropertyOp56
 70
     1
102
RTVSPropertyOp57
 70
     1
102
RTVSPost2010Prop28
280
     0
102
RTVSPost2010PropOp28
 70
     1
102
RTVSPost2010Prop29
280
     1
102
RTVSPost2010PropOp29
 70
     1
102
RTVSPost2010Prop30
280
     1
102
RTVSPost2010PropOp30
 70
     1
102
RTVSPost2010Prop31
280
     0
102
RTVSPost2010PropOp31
 70
     1
102
RTVSPost2010Prop32
280
     0
102
RTVSPost2010PropOp32
 70
     1
102
RTVSPost2010Prop33
280
     0
102
RTVSPost2010PropOp33
 70
     1
102
RTVSPost2010Prop34
280
     0
102
RTVSPost2010PropOp34
 70
     1
102
RTVSPost2010Prop35
280
     0
102
RTVSPost2010PropOp35
 70
     1
102
RTVSPost2010Prop36
280
     0
102
RTVSPost2010PropOp36
 70
     1
102
RTVSPost2010Prop37
 90
       50
102
RTVSPost2010PropOp37
 70
     1
102
RTVSPost2010Prop38
140
0.0
102
RTVSPost2010PropOp38
 70
     1
102
RTVSPost2010Prop39
140
1.0
102
RTVSPost2010PropOp39
 70
     1
102
RTVSPost2010Prop40
 90
        0
102
RTVSPost2010PropOp40
 70
     1
102
RTVSPost2010Prop41ColorIndex
 90
       18
102
RTVSPost2010Prop41ColorRGB
 90
        0
102
RTVSPost2010PropOp41
 70
     1
102
RTVSPost2010Prop42
 90
       50
102
RTVSPost2010PropOp42
 70
     1
102
RTVSPost2010Prop43
 90
        3
102
RTVSPost2010PropOp43
 70
     1
102
RTVSPost2010Prop44ColorIndex
 90
        5
102
RTVSPost2010Prop44ColorRGB
 90
      255
102
RTVSPost2010PropOp44
 70
     1
102
RTVSPost2010Prop45
280
     0
102
RTVSPost2010PropOp45
 70
     1
102
RTVSPost2010Prop46
 90
       50
102
RTVSPost2010PropOp46
 70
     1
102
RTVSPost2010Prop47
 90
       50
102
RTVSPost2010PropOp47
 70
     1
102
RTVSPost2010Prop48
 90
       50
102
RTVSPost2010PropOp48
 70
     1
102
RTVSPost2010Prop49
280
     0
102
RTVSPost2010PropOp49
 70
     1
102
RTVSPost2010Prop50
 90
       50
102
RTVSPost2010PropOp50
 70
     1
102
RTVSPost2010Prop51ColorIndex
 90
      256
102
RTVSPost2010Prop51ColorRGB
 90
-16777216
102
RTVSPost2010PropOp51
 70
     0
102
RTVSPost2010Prop52
140
1.0
102
RTVSPost2010PropOp52
 70
     0
102
RTVSPost2010Prop53
 90
        2
102
RTVSPost2010PropOp53
 70
     1
102
RTVSPost2010Prop54
  1
strokes_ogs.tif
102
RTVSPost2010PropOp54
 70
     1
102
RTVSPost2010Prop55
280
     0
102
RTVSPost2010PropOp55
 70
     1
102
RTVSPost2010Prop56
140
1.0
102
RTVSPost2010PropOp56
 70
     1
102
RTVSPost2010Prop57
140
1.0
102
RTVSPost2010PropOp57
 70
     1
  0
XRECORD
  5
39A
102
{ACAD_REACTORS
330
399
102
}
330
399
100
AcDbXrecord
280
     1
102
RTVSPropertyOp0
 70
     1
102
RTVSPropertyOp1
 70
     1
102
RTVSPropertyOp2
 70
     1
102
RTVSPropertyOp3
 70
     1
102
RTVSPropertyOp4
 70
     1
102
RTVSPropertyOp5
 70
     1
102
RTVSPropertyOp6
 70
     1
102
RTVSPropertyOp7
 70
     1
102
RTVSPropertyOp8
 70
     1
102
RTVSPropertyOp9
 70
     1
102
RTVSPropertyOp10
 70
     1
102
RTVSPropertyOp11
 70
     1
102
RTVSPropertyOp12
 70
     1
102
RTVSPropertyOp13
 70
     1
102
RTVSPropertyOp14
 70
     1
102
RTVSPropertyOp15
 70
     1
102
RTVSPropertyOp16
 70
     1
102
RTVSPropertyOp17
 70
     1
102
RTVSPropertyOp18
 70
     1
102
RTVSPropertyOp19
 70
     1
102
RTVSPropertyOp20
 70
     1
102
RTVSPropertyOp21
 70
     1
102
RTVSPropertyOp22
 70
     1
102
RTVSPropertyOp23
 70
     1
102
RTVSPropertyOp24
 70
     1
102
RTVSPropertyOp25
 70
     1
102
RTVSPropertyOp26
 70
     1
102
RTVSPropertyOp27
 70
     1
102
RTVSPropertyOp28
 70
     1
102
RTVSPropertyOp29
 70
     1
102
RTVSPropertyOp30
 70
     1
102
RTVSPropertyOp31
 70
     1
102
RTVSPropertyOp32
 70
     1
102
RTVSPropertyOp33
 70
     1
102
RTVSPropertyOp34
 70
     1
102
RTVSPropertyOp35
 70
     1
102
RTVSPropertyOp36
 70
     1
102
RTVSPropertyOp37
 70
     1
102
RTVSPropertyOp38
 70
     1
102
RTVSPropertyOp39
 70
     1
102
RTVSPropertyOp40
 70
     1
102
RTVSPropertyOp41
 70
     1
102
RTVSPropertyOp42
 70
     1
102
RTVSPropertyOp43
 70
     1
102
RTVSPropertyOp44
 70
     1
102
RTVSPropertyOp45
 70
     1
102
RTVSPropertyOp46
 70
     1
102
RTVSPropertyOp47
 70
     1
102
RTVSPropertyOp48
 70
     1
102
RTVSPropertyOp49
 70
     1
102
RTVSPropertyOp50
 70
     1
102
RTVSPropertyOp51
 70
     0
102
RTVSPropertyOp52
 70
     0
102
RTVSPropertyOp53
 70
     1
102
RTVSPropertyOp54
 70
     1
102
RTVSPropertyOp55
 70
     1
102
RTVSPropertyOp56
 70
     1
102
RTVSPropertyOp57
 70
     1
102
RTVSPost2010Prop28
280
     0
102
RTVSPost2010PropOp28
 70
     1
102
RTVSPost2010Prop29
280
     1
102
RTVSPost2010PropOp29
 70
     1
102
RTVSPost2010Prop30
280
     1
102
RTVSPost2010PropOp30
 70
     1
102
RTVSPost2010Prop31
280
     0
102
RTVSPost2010PropOp31
 70
     1
102
RTVSPost2010Prop32
280
     0
102
RTVSPost2010PropOp32
 70
     1
102
RTVSPost2010Prop33
280
     0
102
RTVSPost2010PropOp33
 70
     1
102
RTVSPost2010Prop34
280
     0
102
RTVSPost2010PropOp34
 70
     1
102
RTVSPost2010Prop35
280
     0
102
RTVSPost2010PropOp35
 70
     1
102
RTVSPost2010Prop36
280
     0
102
RTVSPost2010PropOp36
 70
     1
102
RTVSPost2010Prop37
 90
       50
102
RTVSPost2010PropOp37
 70
     1
102
RTVSPost2010Prop38
140
0.0
102
RTVSPost2010PropOp38
 70
     1
102
RTVSPost2010Prop39
140
1.0
102
RTVSPost2010PropOp39
 70
     1
102
RTVSPost2010Prop40
 90
        0
102
RTVSPost2010PropOp40
 70
     1
102
RTVSPost2010Prop41ColorIndex
 90
       18
102
RTVSPost2010Prop41ColorRGB
 90
        0
102
RTVSPost2010PropOp41
 70
     1
102
RTVSPost2010Prop42
 90
       50
102
RTVSPost2010PropOp42
 70
     1
102
RTVSPost2010Prop43
 90
        3
102
RTVSPost2010PropOp43
 70
     1
102
RTVSPost2010Prop44ColorIndex
 90
        5
102
RTVSPost2010Prop44ColorRGB
 90
      255
102
RTVSPost2010PropOp44
 70
     1
102
RTVSPost2010Prop45
280
     0
102
RTVSPost2010PropOp45
 70
     1
102
RTVSPost2010Prop46
 90
       50
102
RTVSPost2010PropOp46
 70
     1
102
RTVSPost2010Prop47
 90
       50
102
RTVSPost2010PropOp47
 70
     1
102
RTVSPost2010Prop48
 90
       50
102
RTVSPost2010PropOp48
 70
     1
102
RTVSPost2010Prop49
280
     0
102
RTVSPost2010PropOp49
 70
     1
102
RTVSPost2010Prop50
 90
       50
102
RTVSPost2010PropOp50
 70
     1
102
RTVSPost2010Prop51ColorIndex
 90
      256
102
RTVSPost2010Prop51ColorRGB
 90
-16777216
102
RTVSPost2010PropOp51
 70
     0
102
RTVSPost2010Prop52
140
1.0
102
RTVSPost2010PropOp52
 70
     0
102
RTVSPost2010Prop53
 90
        2
102
RTVSPost2010PropOp53
 70
     1
102
RTVSPost2010Prop54
  1
strokes_ogs.tif
102
RTVSPost2010PropOp54
 70
     1
102
RTVSPost2010Prop55
280
     0
102
RTVSPost2010PropOp55
 70
     1
102
RTVSPost2010Prop56
140
1.0
102
RTVSPost2010PropOp56
 70
     1
102
RTVSPost2010Prop57
140
1.0
102
RTVSPost2010PropOp57
 70
     1
  0
XRECORD
  5
3AA
102
{ACAD_REACTORS
330
3A9
102
}
330
3A9
100
AcDbXrecord
280
     1
102
RTVSPropertyOp0
 70
     0
102
RTVSPropertyOp1
 70
     0
102
RTVSPropertyOp2
 70
     0
102
RTVSPropertyOp3
 70
     0
102
RTVSPropertyOp4
 70
     0
102
RTVSPropertyOp5
 70
     0
102
RTVSPropertyOp6
 70
     0
102
RTVSPropertyOp7
 70
     0
102
RTVSPropertyOp8
 70
     0
102
RTVSPropertyOp9
 70
     0
102
RTVSPropertyOp10
 70
     0
102
RTVSPropertyOp11
 70
     0
102
RTVSPropertyOp12
 70
     0
102
RTVSPropertyOp13
 70
     0
102
RTVSPropertyOp14
 70
     2
102
RTVSPropertyOp15
 70
     0
102
RTVSPropertyOp16
 70
     0
102
RTVSPropertyOp17
 70
     0
102
RTVSPropertyOp18
 70
     0
102
RTVSPropertyOp19
 70
     0
102
RTVSPropertyOp20
 70
     0
102
RTVSPropertyOp21
 70
     0
102
RTVSPropertyOp22
 70
     0
102
RTVSPropertyOp23
 70
     0
102
RTVSPropertyOp24
 70
     0
102
RTVSPropertyOp25
 70
     0
102
RTVSPropertyOp26
 70
     0
102
RTVSPropertyOp27
 70
     0
102
RTVSPropertyOp28
 70
     0
102
RTVSPropertyOp29
 70
     0
102
RTVSPropertyOp30
 70
     0
102
RTVSPropertyOp31
 70
     0
102
RTVSPropertyOp32
 70
     0
102
RTVSPropertyOp33
 70
     0
102
RTVSPropertyOp34
 70
     0
102
RTVSPropertyOp35
 70
     0
102
RTVSPropertyOp36
 70
     0
102
RTVSPropertyOp37
 70
     0
102
RTVSPropertyOp38
 70
     0
102
RTVSPropertyOp39
 70
     0
102
RTVSPropertyOp40
 70
     0
102
RTVSPropertyOp41
 70
     0
102
RTVSPropertyOp42
 70
     0
102
RTVSPropertyOp43
 70
     0
102
RTVSPropertyOp44
 70
     0
102
RTVSPropertyOp45
 70
     0
102
RTVSPropertyOp46
 70
     0
102
RTVSPropertyOp47
 70
     0
102
RTVSPropertyOp48
 70
     0
102
RTVSPropertyOp49
 70
     0
102
RTVSPropertyOp50
 70
     0
102
RTVSPropertyOp51
 70
     0
102
RTVSPropertyOp52
 70
     0
102
RTVSPropertyOp53
 70
     0
102
RTVSPropertyOp54
 70
     0
102
RTVSPropertyOp55
 70
     0
102
RTVSPropertyOp56
 70
     0
102
RTVSPropertyOp57
 70
     0
102
RTVSPost2010Prop28
280
     0
102
RTVSPost2010PropOp28
 70
     0
102
RTVSPost2010Prop29
280
     1
102
RTVSPost2010PropOp29
 70
     0
102
RTVSPost2010Prop30
280
     1
102
RTVSPost2010PropOp30
 70
     0
102
RTVSPost2010Prop31
280
     0
102
RTVSPost2010PropOp31
 70
     0
102
RTVSPost2010Prop32
280
     0
102
RTVSPost2010PropOp32
 70
     0
102
RTVSPost2010Prop33
280
     0
102
RTVSPost2010PropOp33
 70
     0
102
RTVSPost2010Prop34
280
     0
102
RTVSPost2010PropOp34
 70
     0
102
RTVSPost2010Prop35
280
     0
102
RTVSPost2010PropOp35
 70
     0
102
RTVSPost2010Prop36
280
     0
102
RTVSPost2010PropOp36
 70
     0
102
RTVSPost2010Prop37
 90
       50
102
RTVSPost2010PropOp37
 70
     0
102
RTVSPost2010Prop38
140
0.0
102
RTVSPost2010PropOp38
 70
     0
102
RTVSPost2010Prop39
140
1.0
102
RTVSPost2010PropOp39
 70
     0
102
RTVSPost2010Prop40
 90
        0
102
RTVSPost2010PropOp40
 70
     0
102
RTVSPost2010Prop41ColorIndex
 90
       18
102
RTVSPost2010Prop41ColorRGB
 90
        0
102
RTVSPost2010PropOp41
 70
     0
102
RTVSPost2010Prop42
 90
       50
102
RTVSPost2010PropOp42
 70
     0
102
RTVSPost2010Prop43
 90
        3
102
RTVSPost2010PropOp43
 70
     0
102
RTVSPost2010Prop44ColorIndex
 90
        5
102
RTVSPost2010Prop44ColorRGB
 90
      255
102
RTVSPost2010PropOp44
 70
     0
102
RTVSPost2010Prop45
280
     0
102
RTVSPost2010PropOp45
 70
     0
102
RTVSPost2010Prop46
 90
       50
102
RTVSPost2010PropOp46
 70
     0
102
RTVSPost2010Prop47
 90
       50
102
RTVSPost2010PropOp47
 70
     0
102
RTVSPost2010Prop48
 90
       50
102
RTVSPost2010PropOp48
 70
     0
102
RTVSPost2010Prop49
280
     0
102
RTVSPost2010PropOp49
 70
     0
102
RTVSPost2010Prop50
 90
       50
102
RTVSPost2010PropOp50
 70
     0
102
RTVSPost2010Prop51ColorIndex
 90
      256
102
RTVSPost2010Prop51ColorRGB
 90
-16777216
102
RTVSPost2010PropOp51
 70
     0
102
RTVSPost2010Prop52
140
1.0
102
RTVSPost2010PropOp52
 70
     0
102
RTVSPost2010Prop53
 90
        2
102
RTVSPost2010PropOp53
 70
     0
102
RTVSPost2010Prop54
  1
strokes_ogs.tif
102
RTVSPost2010PropOp54
 70
     0
102
RTVSPost2010Prop55
280
     0
102
RTVSPost2010PropOp55
 70
     0
102
RTVSPost2010Prop56
140
1.0
102
RTVSPost2010PropOp56
 70
     0
102
RTVSPost2010Prop57
140
1.0
102
RTVSPost2010PropOp57
 70
     0
  0
XRECORD
  5
3A2
102
{ACAD_REACTORS
330
3A1
102
}
330
3A1
100
AcDbXrecord
280
     1
102
RTVSPropertyOp0
 70
     1
102
RTVSPropertyOp1
 70
     1
102
RTVSPropertyOp2
 70
     1
102
RTVSPropertyOp3
 70
     1
102
RTVSPropertyOp4
 70
     1
102
RTVSPropertyOp5
 70
     1
102
RTVSPropertyOp6
 70
     1
102
RTVSPropertyOp7
 70
     1
102
RTVSPropertyOp8
 70
     1
102
RTVSPropertyOp9
 70
     1
102
RTVSPropertyOp10
 70
     1
102
RTVSPropertyOp11
 70
     1
102
RTVSPropertyOp12
 70
     1
102
RTVSPropertyOp13
 70
     1
102
RTVSPropertyOp14
 70
     1
102
RTVSPropertyOp15
 70
     1
102
RTVSPropertyOp16
 70
     1
102
RTVSPropertyOp17
 70
     1
102
RTVSPropertyOp18
 70
     1
102
RTVSPropertyOp19
 70
     1
102
RTVSPropertyOp20
 70
     1
102
RTVSPropertyOp21
 70
     1
102
RTVSPropertyOp22
 70
     1
102
RTVSPropertyOp23
 70
     1
102
RTVSPropertyOp24
 70
     1
102
RTVSPropertyOp25
 70
     1
102
RTVSPropertyOp26
 70
     1
102
RTVSPropertyOp27
 70
     1
102
RTVSPropertyOp28
 70
     1
102
RTVSPropertyOp29
 70
     1
102
RTVSPropertyOp30
 70
     1
102
RTVSPropertyOp31
 70
     1
102
RTVSPropertyOp32
 70
     1
102
RTVSPropertyOp33
 70
     1
102
RTVSPropertyOp34
 70
     1
102
RTVSPropertyOp35
 70
     1
102
RTVSPropertyOp36
 70
     1
102
RTVSPropertyOp37
 70
     1
102
RTVSPropertyOp38
 70
     1
102
RTVSPropertyOp39
 70
     1
102
RTVSPropertyOp40
 70
     1
102
RTVSPropertyOp41
 70
     1
102
RTVSPropertyOp42
 70
     1
102
RTVSPropertyOp43
 70
     1
102
RTVSPropertyOp44
 70
     1
102
RTVSPropertyOp45
 70
     1
102
RTVSPropertyOp46
 70
     1
102
RTVSPropertyOp47
 70
     1
102
RTVSPropertyOp48
 70
     1
102
RTVSPropertyOp49
 70
     1
102
RTVSPropertyOp50
 70
     1
102
RTVSPropertyOp51
 70
     0
102
RTVSPropertyOp52
 70
     0
102
RTVSPropertyOp53
 70
     1
102
RTVSPropertyOp54
 70
     1
102
RTVSPropertyOp55
 70
     1
102
RTVSPropertyOp56
 70
     1
102
RTVSPropertyOp57
 70
     1
102
RTVSPost2010Prop28
280
     0
102
RTVSPost2010PropOp28
 70
     1
102
RTVSPost2010Prop29
280
     1
102
RTVSPost2010PropOp29
 70
     1
102
RTVSPost2010Prop30
280
     1
102
RTVSPost2010PropOp30
 70
     1
102
RTVSPost2010Prop31
280
     0
102
RTVSPost2010PropOp31
 70
     1
102
RTVSPost2010Prop32
280
     0
102
RTVSPost2010PropOp32
 70
     1
102
RTVSPost2010Prop33
280
     0
102
RTVSPost2010PropOp33
 70
     1
102
RTVSPost2010Prop34
280
     0
102
RTVSPost2010PropOp34
 70
     1
102
RTVSPost2010Prop35
280
     0
102
RTVSPost2010PropOp35
 70
     1
102
RTVSPost2010Prop36
280
     0
102
RTVSPost2010PropOp36
 70
     1
102
RTVSPost2010Prop37
 90
       50
102
RTVSPost2010PropOp37
 70
     1
102
RTVSPost2010Prop38
140
0.0
102
RTVSPost2010PropOp38
 70
     1
102
RTVSPost2010Prop39
140
1.0
102
RTVSPost2010PropOp39
 70
     1
102
RTVSPost2010Prop40
 90
        0
102
RTVSPost2010PropOp40
 70
     1
102
RTVSPost2010Prop41ColorIndex
 90
       18
102
RTVSPost2010Prop41ColorRGB
 90
        0
102
RTVSPost2010PropOp41
 70
     1
102
RTVSPost2010Prop42
 90
       50
102
RTVSPost2010PropOp42
 70
     1
102
RTVSPost2010Prop43
 90
        3
102
RTVSPost2010PropOp43
 70
     1
102
RTVSPost2010Prop44ColorIndex
 90
        5
102
RTVSPost2010Prop44ColorRGB
 90
      255
102
RTVSPost2010PropOp44
 70
     1
102
RTVSPost2010Prop45
280
     0
102
RTVSPost2010PropOp45
 70
     1
102
RTVSPost2010Prop46
 90
       50
102
RTVSPost2010PropOp46
 70
     1
102
RTVSPost2010Prop47
 90
       50
102
RTVSPost2010PropOp47
 70
     1
102
RTVSPost2010Prop48
 90
       50
102
RTVSPost2010PropOp48
 70
     1
102
RTVSPost2010Prop49
280
     0
102
RTVSPost2010PropOp49
 70
     1
102
RTVSPost2010Prop50
 90
       50
102
RTVSPost2010PropOp50
 70
     1
102
RTVSPost2010Prop51ColorIndex
 90
      256
102
RTVSPost2010Prop51ColorRGB
 90
-16777216
102
RTVSPost2010PropOp51
 70
     0
102
RTVSPost2010Prop52
140
1.0
102
RTVSPost2010PropOp52
 70
     0
102
RTVSPost2010Prop53
 90
        2
102
RTVSPost2010PropOp53
 70
     1
102
RTVSPost2010Prop54
  1
strokes_ogs.tif
102
RTVSPost2010PropOp54
 70
     1
102
RTVSPost2010Prop55
280
     0
102
RTVSPost2010PropOp55
 70
     1
102
RTVSPost2010Prop56
140
1.0
102
RTVSPost2010PropOp56
 70
     1
102
RTVSPost2010Prop57
140
1.0
102
RTVSPost2010PropOp57
 70
     1
  0
XRECORD
  5
386
102
{ACAD_REACTORS
330
385
102
}
330
385
100
AcDbXrecord
280
     1
102
RTVSPropertyOp0
 70
     1
102
RTVSPropertyOp1
 70
     1
102
RTVSPropertyOp2
 70
     1
102
RTVSPropertyOp3
 70
     1
102
RTVSPropertyOp4
 70
     1
102
RTVSPropertyOp5
 70
     1
102
RTVSPropertyOp6
 70
     1
102
RTVSPropertyOp7
 70
     1
102
RTVSPropertyOp8
 70
     1
102
RTVSPropertyOp9
 70
     1
102
RTVSPropertyOp10
 70
     1
102
RTVSPropertyOp11
 70
     1
102
RTVSPropertyOp12
 70
     1
102
RTVSPropertyOp13
 70
     1
102
RTVSPropertyOp14
 70
     1
102
RTVSPropertyOp15
 70
     1
102
RTVSPropertyOp16
 70
     1
102
RTVSPropertyOp17
 70
     1
102
RTVSPropertyOp18
 70
     1
102
RTVSPropertyOp19
 70
     1
102
RTVSPropertyOp20
 70
     1
102
RTVSPropertyOp21
 70
     1
102
RTVSPropertyOp22
 70
     1
102
RTVSPropertyOp23
 70
     1
102
RTVSPropertyOp24
 70
     1
102
RTVSPropertyOp25
 70
     1
102
RTVSPropertyOp26
 70
     1
102
RTVSPropertyOp27
 70
     1
102
RTVSPropertyOp28
 70
     1
102
RTVSPropertyOp29
 70
     1
102
RTVSPropertyOp30
 70
     1
102
RTVSPropertyOp31
 70
     1
102
RTVSPropertyOp32
 70
     1
102
RTVSPropertyOp33
 70
     1
102
RTVSPropertyOp34
 70
     1
102
RTVSPropertyOp35
 70
     1
102
RTVSPropertyOp36
 70
     1
102
RTVSPropertyOp37
 70
     1
102
RTVSPropertyOp38
 70
     1
102
RTVSPropertyOp39
 70
     1
102
RTVSPropertyOp40
 70
     1
102
RTVSPropertyOp41
 70
     1
102
RTVSPropertyOp42
 70
     1
102
RTVSPropertyOp43
 70
     1
102
RTVSPropertyOp44
 70
     1
102
RTVSPropertyOp45
 70
     1
102
RTVSPropertyOp46
 70
     1
102
RTVSPropertyOp47
 70
     1
102
RTVSPropertyOp48
 70
     1
102
RTVSPropertyOp49
 70
     1
102
RTVSPropertyOp50
 70
     1
102
RTVSPropertyOp51
 70
     0
102
RTVSPropertyOp52
 70
     0
102
RTVSPropertyOp53
 70
     1
102
RTVSPropertyOp54
 70
     1
102
RTVSPropertyOp55
 70
     1
102
RTVSPropertyOp56
 70
     1
102
RTVSPropertyOp57
 70
     1
102
RTVSPost2010Prop28
280
     0
102
RTVSPost2010PropOp28
 70
     1
102
RTVSPost2010Prop29
280
     1
102
RTVSPost2010PropOp29
 70
     1
102
RTVSPost2010Prop30
280
     1
102
RTVSPost2010PropOp30
 70
     1
102
RTVSPost2010Prop31
280
     0
102
RTVSPost2010PropOp31
 70
     1
102
RTVSPost2010Prop32
280
     0
102
RTVSPost2010PropOp32
 70
     1
102
RTVSPost2010Prop33
280
     0
102
RTVSPost2010PropOp33
 70
     1
102
RTVSPost2010Prop34
280
     0
102
RTVSPost2010PropOp34
 70
     1
102
RTVSPost2010Prop35
280
     0
102
RTVSPost2010PropOp35
 70
     1
102
RTVSPost2010Prop36
280
     0
102
RTVSPost2010PropOp36
 70
     1
102
RTVSPost2010Prop37
 90
       50
102
RTVSPost2010PropOp37
 70
     1
102
RTVSPost2010Prop38
140
0.0
102
RTVSPost2010PropOp38
 70
     1
102
RTVSPost2010Prop39
140
1.0
102
RTVSPost2010PropOp39
 70
     1
102
RTVSPost2010Prop40
 90
        0
102
RTVSPost2010PropOp40
 70
     1
102
RTVSPost2010Prop41ColorIndex
 90
       18
102
RTVSPost2010Prop41ColorRGB
 90
        0
102
RTVSPost2010PropOp41
 70
     1
102
RTVSPost2010Prop42
 90
       50
102
RTVSPost2010PropOp42
 70
     1
102
RTVSPost2010Prop43
 90
        3
102
RTVSPost2010PropOp43
 70
     1
102
RTVSPost2010Prop44ColorIndex
 90
        5
102
RTVSPost2010Prop44ColorRGB
 90
      255
102
RTVSPost2010PropOp44
 70
     1
102
RTVSPost2010Prop45
280
     0
102
RTVSPost2010PropOp45
 70
     1
102
RTVSPost2010Prop46
 90
       50
102
RTVSPost2010PropOp46
 70
     1
102
RTVSPost2010Prop47
 90
       50
102
RTVSPost2010PropOp47
 70
     1
102
RTVSPost2010Prop48
 90
       50
102
RTVSPost2010PropOp48
 70
     1
102
RTVSPost2010Prop49
280
     0
102
RTVSPost2010PropOp49
 70
     1
102
RTVSPost2010Prop50
 90
       50
102
RTVSPost2010PropOp50
 70
     1
102
RTVSPost2010Prop51ColorIndex
 90
      256
102
RTVSPost2010Prop51ColorRGB
 90
-16777216
102
RTVSPost2010PropOp51
 70
     0
102
RTVSPost2010Prop52
140
1.0
102
RTVSPost2010PropOp52
 70
     0
102
RTVSPost2010Prop53
 90
        2
102
RTVSPost2010PropOp53
 70
     1
102
RTVSPost2010Prop54
  1
strokes_ogs.tif
102
RTVSPost2010PropOp54
 70
     1
102
RTVSPost2010Prop55
280
     0
102
RTVSPost2010PropOp55
 70
     1
102
RTVSPost2010Prop56
140
1.0
102
RTVSPost2010PropOp56
 70
     1
102
RTVSPost2010Prop57
140
1.0
102
RTVSPost2010PropOp57
 70
     1
  0
XRECORD
  5
388
102
{ACAD_REACTORS
330
387
102
}
330
387
100
AcDbXrecord
280
     1
102
RTVSPropertyOp0
 70
     1
102
RTVSPropertyOp1
 70
     1
102
RTVSPropertyOp2
 70
     1
102
RTVSPropertyOp3
 70
     1
102
RTVSPropertyOp4
 70
     1
102
RTVSPropertyOp5
 70
     1
102
RTVSPropertyOp6
 70
     1
102
RTVSPropertyOp7
 70
     1
102
RTVSPropertyOp8
 70
     1
102
RTVSPropertyOp9
 70
     1
102
RTVSPropertyOp10
 70
     1
102
RTVSPropertyOp11
 70
     1
102
RTVSPropertyOp12
 70
     1
102
RTVSPropertyOp13
 70
     1
102
RTVSPropertyOp14
 70
     1
102
RTVSPropertyOp15
 70
     1
102
RTVSPropertyOp16
 70
     1
102
RTVSPropertyOp17
 70
     1
102
RTVSPropertyOp18
 70
     1
102
RTVSPropertyOp19
 70
     1
102
RTVSPropertyOp20
 70
     1
102
RTVSPropertyOp21
 70
     1
102
RTVSPropertyOp22
 70
     1
102
RTVSPropertyOp23
 70
     1
102
RTVSPropertyOp24
 70
     1
102
RTVSPropertyOp25
 70
     1
102
RTVSPropertyOp26
 70
     1
102
RTVSPropertyOp27
 70
     1
102
RTVSPropertyOp28
 70
     1
102
RTVSPropertyOp29
 70
     1
102
RTVSPropertyOp30
 70
     1
102
RTVSPropertyOp31
 70
     1
102
RTVSPropertyOp32
 70
     1
102
RTVSPropertyOp33
 70
     1
102
RTVSPropertyOp34
 70
     1
102
RTVSPropertyOp35
 70
     1
102
RTVSPropertyOp36
 70
     1
102
RTVSPropertyOp37
 70
     1
102
RTVSPropertyOp38
 70
     1
102
RTVSPropertyOp39
 70
     1
102
RTVSPropertyOp40
 70
     1
102
RTVSPropertyOp41
 70
     1
102
RTVSPropertyOp42
 70
     1
102
RTVSPropertyOp43
 70
     1
102
RTVSPropertyOp44
 70
     1
102
RTVSPropertyOp45
 70
     1
102
RTVSPropertyOp46
 70
     1
102
RTVSPropertyOp47
 70
     1
102
RTVSPropertyOp48
 70
     1
102
RTVSPropertyOp49
 70
     1
102
RTVSPropertyOp50
 70
     1
102
RTVSPropertyOp51
 70
     0
102
RTVSPropertyOp52
 70
     0
102
RTVSPropertyOp53
 70
     1
102
RTVSPropertyOp54
 70
     1
102
RTVSPropertyOp55
 70
     1
102
RTVSPropertyOp56
 70
     1
102
RTVSPropertyOp57
 70
     1
102
RTVSPost2010Prop28
280
     0
102
RTVSPost2010PropOp28
 70
     1
102
RTVSPost2010Prop29
280
     1
102
RTVSPost2010PropOp29
 70
     1
102
RTVSPost2010Prop30
280
     1
102
RTVSPost2010PropOp30
 70
     1
102
RTVSPost2010Prop31
280
     0
102
RTVSPost2010PropOp31
 70
     1
102
RTVSPost2010Prop32
280
     0
102
RTVSPost2010PropOp32
 70
     1
102
RTVSPost2010Prop33
280
     0
102
RTVSPost2010PropOp33
 70
     1
102
RTVSPost2010Prop34
280
     0
102
RTVSPost2010PropOp34
 70
     1
102
RTVSPost2010Prop35
280
     0
102
RTVSPost2010PropOp35
 70
     1
102
RTVSPost2010Prop36
280
     0
102
RTVSPost2010PropOp36
 70
     1
102
RTVSPost2010Prop37
 90
       50
102
RTVSPost2010PropOp37
 70
     1
102
RTVSPost2010Prop38
140
0.0
102
RTVSPost2010PropOp38
 70
     1
102
RTVSPost2010Prop39
140
1.0
102
RTVSPost2010PropOp39
 70
     1
102
RTVSPost2010Prop40
 90
        0
102
RTVSPost2010PropOp40
 70
     1
102
RTVSPost2010Prop41ColorIndex
 90
       18
102
RTVSPost2010Prop41ColorRGB
 90
        0
102
RTVSPost2010PropOp41
 70
     1
102
RTVSPost2010Prop42
 90
       50
102
RTVSPost2010PropOp42
 70
     1
102
RTVSPost2010Prop43
 90
        3
102
RTVSPost2010PropOp43
 70
     1
102
RTVSPost2010Prop44ColorIndex
 90
        5
102
RTVSPost2010Prop44ColorRGB
 90
      255
102
RTVSPost2010PropOp44
 70
     1
102
RTVSPost2010Prop45
280
     0
102
RTVSPost2010PropOp45
 70
     1
102
RTVSPost2010Prop46
 90
       50
102
RTVSPost2010PropOp46
 70
     1
102
RTVSPost2010Prop47
 90
       50
102
RTVSPost2010PropOp47
 70
     1
102
RTVSPost2010Prop48
 90
       50
102
RTVSPost2010PropOp48
 70
     1
102
RTVSPost2010Prop49
280
     0
102
RTVSPost2010PropOp49
 70
     1
102
RTVSPost2010Prop50
 90
       50
102
RTVSPost2010PropOp50
 70
     1
102
RTVSPost2010Prop51ColorIndex
 90
      256
102
RTVSPost2010Prop51ColorRGB
 90
-16777216
102
RTVSPost2010PropOp51
 70
     0
102
RTVSPost2010Prop52
140
1.0
102
RTVSPost2010PropOp52
 70
     0
102
RTVSPost2010Prop53
 90
        2
102
RTVSPost2010PropOp53
 70
     1
102
RTVSPost2010Prop54
  1
strokes_ogs.tif
102
RTVSPost2010PropOp54
 70
     1
102
RTVSPost2010Prop55
280
     0
102
RTVSPost2010PropOp55
 70
     1
102
RTVSPost2010Prop56
140
1.0
102
RTVSPost2010PropOp56
 70
     1
102
RTVSPost2010Prop57
140
1.0
102
RTVSPost2010PropOp57
 70
     1
  0
XRECORD
  5
38A
102
{ACAD_REACTORS
330
389
102
}
330
389
100
AcDbXrecord
280
     1
102
RTVSPropertyOp0
 70
     1
102
RTVSPropertyOp1
 70
     1
102
RTVSPropertyOp2
 70
     1
102
RTVSPropertyOp3
 70
     1
102
RTVSPropertyOp4
 70
     1
102
RTVSPropertyOp5
 70
     1
102
RTVSPropertyOp6
 70
     1
102
RTVSPropertyOp7
 70
     1
102
RTVSPropertyOp8
 70
     1
102
RTVSPropertyOp9
 70
     1
102
RTVSPropertyOp10
 70
     1
102
RTVSPropertyOp11
 70
     1
102
RTVSPropertyOp12
 70
     1
102
RTVSPropertyOp13
 70
     1
102
RTVSPropertyOp14
 70
     1
102
RTVSPropertyOp15
 70
     1
102
RTVSPropertyOp16
 70
     1
102
RTVSPropertyOp17
 70
     1
102
RTVSPropertyOp18
 70
     1
102
RTVSPropertyOp19
 70
     1
102
RTVSPropertyOp20
 70
     1
102
RTVSPropertyOp21
 70
     1
102
RTVSPropertyOp22
 70
     1
102
RTVSPropertyOp23
 70
     1
102
RTVSPropertyOp24
 70
     1
102
RTVSPropertyOp25
 70
     1
102
RTVSPropertyOp26
 70
     1
102
RTVSPropertyOp27
 70
     1
102
RTVSPropertyOp28
 70
     1
102
RTVSPropertyOp29
 70
     1
102
RTVSPropertyOp30
 70
     1
102
RTVSPropertyOp31
 70
     1
102
RTVSPropertyOp32
 70
     1
102
RTVSPropertyOp33
 70
     1
102
RTVSPropertyOp34
 70
     1
102
RTVSPropertyOp35
 70
     1
102
RTVSPropertyOp36
 70
     1
102
RTVSPropertyOp37
 70
     1
102
RTVSPropertyOp38
 70
     1
102
RTVSPropertyOp39
 70
     1
102
RTVSPropertyOp40
 70
     1
102
RTVSPropertyOp41
 70
     1
102
RTVSPropertyOp42
 70
     1
102
RTVSPropertyOp43
 70
     1
102
RTVSPropertyOp44
 70
     1
102
RTVSPropertyOp45
 70
     1
102
RTVSPropertyOp46
 70
     1
102
RTVSPropertyOp47
 70
     1
102
RTVSPropertyOp48
 70
     1
102
RTVSPropertyOp49
 70
     1
102
RTVSPropertyOp50
 70
     1
102
RTVSPropertyOp51
 70
     0
102
RTVSPropertyOp52
 70
     0
102
RTVSPropertyOp53
 70
     1
102
RTVSPropertyOp54
 70
     1
102
RTVSPropertyOp55
 70
     1
102
RTVSPropertyOp56
 70
     1
102
RTVSPropertyOp57
 70
     1
102
RTVSPost2010Prop28
280
     0
102
RTVSPost2010PropOp28
 70
     1
102
RTVSPost2010Prop29
280
     1
102
RTVSPost2010PropOp29
 70
     1
102
RTVSPost2010Prop30
280
     1
102
RTVSPost2010PropOp30
 70
     1
102
RTVSPost2010Prop31
280
     0
102
RTVSPost2010PropOp31
 70
     1
102
RTVSPost2010Prop32
280
     0
102
RTVSPost2010PropOp32
 70
     1
102
RTVSPost2010Prop33
280
     0
102
RTVSPost2010PropOp33
 70
     1
102
RTVSPost2010Prop34
280
     0
102
RTVSPost2010PropOp34
 70
     1
102
RTVSPost2010Prop35
280
     0
102
RTVSPost2010PropOp35
 70
     1
102
RTVSPost2010Prop36
280
     0
102
RTVSPost2010PropOp36
 70
     1
102
RTVSPost2010Prop37
 90
       50
102
RTVSPost2010PropOp37
 70
     1
102
RTVSPost2010Prop38
140
0.0
102
RTVSPost2010PropOp38
 70
     1
102
RTVSPost2010Prop39
140
1.0
102
RTVSPost2010PropOp39
 70
     1
102
RTVSPost2010Prop40
 90
        0
102
RTVSPost2010PropOp40
 70
     1
102
RTVSPost2010Prop41ColorIndex
 90
       18
102
RTVSPost2010Prop41ColorRGB
 90
        0
102
RTVSPost2010PropOp41
 70
     1
102
RTVSPost2010Prop42
 90
       50
102
RTVSPost2010PropOp42
 70
     1
102
RTVSPost2010Prop43
 90
        3
102
RTVSPost2010PropOp43
 70
     1
102
RTVSPost2010Prop44ColorIndex
 90
        5
102
RTVSPost2010Prop44ColorRGB
 90
      255
102
RTVSPost2010PropOp44
 70
     1
102
RTVSPost2010Prop45
280
     0
102
RTVSPost2010PropOp45
 70
     1
102
RTVSPost2010Prop46
 90
       50
102
RTVSPost2010PropOp46
 70
     1
102
RTVSPost2010Prop47
 90
       50
102
RTVSPost2010PropOp47
 70
     1
102
RTVSPost2010Prop48
 90
       50
102
RTVSPost2010PropOp48
 70
     1
102
RTVSPost2010Prop49
280
     0
102
RTVSPost2010PropOp49
 70
     1
102
RTVSPost2010Prop50
 90
       50
102
RTVSPost2010PropOp50
 70
     1
102
RTVSPost2010Prop51ColorIndex
 90
      256
102
RTVSPost2010Prop51ColorRGB
 90
-16777216
102
RTVSPost2010PropOp51
 70
     0
102
RTVSPost2010Prop52
140
1.0
102
RTVSPost2010PropOp52
 70
     0
102
RTVSPost2010Prop53
 90
        2
102
RTVSPost2010PropOp53
 70
     1
102
RTVSPost2010Prop54
  1
strokes_ogs.tif
102
RTVSPost2010PropOp54
 70
     1
102
RTVSPost2010Prop55
280
     0
102
RTVSPost2010PropOp55
 70
     1
102
RTVSPost2010Prop56
140
1.0
102
RTVSPost2010PropOp56
 70
     1
102
RTVSPost2010Prop57
140
1.0
102
RTVSPost2010PropOp57
 70
     1
  0
XRECORD
  5
38C
102
{ACAD_REACTORS
330
38B
102
}
330
38B
100
AcDbXrecord
280
     1
102
RTVSPropertyOp0
 70
     1
102
RTVSPropertyOp1
 70
     1
102
RTVSPropertyOp2
 70
     1
102
RTVSPropertyOp3
 70
     1
102
RTVSPropertyOp4
 70
     1
102
RTVSPropertyOp5
 70
     1
102
RTVSPropertyOp6
 70
     1
102
RTVSPropertyOp7
 70
     1
102
RTVSPropertyOp8
 70
     1
102
RTVSPropertyOp9
 70
     1
102
RTVSPropertyOp10
 70
     1
102
RTVSPropertyOp11
 70
     1
102
RTVSPropertyOp12
 70
     1
102
RTVSPropertyOp13
 70
     1
102
RTVSPropertyOp14
 70
     1
102
RTVSPropertyOp15
 70
     1
102
RTVSPropertyOp16
 70
     1
102
RTVSPropertyOp17
 70
     1
102
RTVSPropertyOp18
 70
     1
102
RTVSPropertyOp19
 70
     1
102
RTVSPropertyOp20
 70
     1
102
RTVSPropertyOp21
 70
     1
102
RTVSPropertyOp22
 70
     1
102
RTVSPropertyOp23
 70
     1
102
RTVSPropertyOp24
 70
     1
102
RTVSPropertyOp25
 70
     1
102
RTVSPropertyOp26
 70
     1
102
RTVSPropertyOp27
 70
     1
102
RTVSPropertyOp28
 70
     1
102
RTVSPropertyOp29
 70
     1
102
RTVSPropertyOp30
 70
     1
102
RTVSPropertyOp31
 70
     1
102
RTVSPropertyOp32
 70
     1
102
RTVSPropertyOp33
 70
     1
102
RTVSPropertyOp34
 70
     1
102
RTVSPropertyOp35
 70
     1
102
RTVSPropertyOp36
 70
     1
102
RTVSPropertyOp37
 70
     1
102
RTVSPropertyOp38
 70
     1
102
RTVSPropertyOp39
 70
     1
102
RTVSPropertyOp40
 70
     1
102
RTVSPropertyOp41
 70
     1
102
RTVSPropertyOp42
 70
     1
102
RTVSPropertyOp43
 70
     1
102
RTVSPropertyOp44
 70
     1
102
RTVSPropertyOp45
 70
     1
102
RTVSPropertyOp46
 70
     1
102
RTVSPropertyOp47
 70
     1
102
RTVSPropertyOp48
 70
     1
102
RTVSPropertyOp49
 70
     1
102
RTVSPropertyOp50
 70
     1
102
RTVSPropertyOp51
 70
     0
102
RTVSPropertyOp52
 70
     0
102
RTVSPropertyOp53
 70
     1
102
RTVSPropertyOp54
 70
     1
102
RTVSPropertyOp55
 70
     1
102
RTVSPropertyOp56
 70
     1
102
RTVSPropertyOp57
 70
     1
102
RTVSPost2010Prop28
280
     0
102
RTVSPost2010PropOp28
 70
     1
102
RTVSPost2010Prop29
280
     1
102
RTVSPost2010PropOp29
 70
     1
102
RTVSPost2010Prop30
280
     1
102
RTVSPost2010PropOp30
 70
     1
102
RTVSPost2010Prop31
280
     0
102
RTVSPost2010PropOp31
 70
     1
102
RTVSPost2010Prop32
280
     0
102
RTVSPost2010PropOp32
 70
     1
102
RTVSPost2010Prop33
280
     0
102
RTVSPost2010PropOp33
 70
     1
102
RTVSPost2010Prop34
280
     0
102
RTVSPost2010PropOp34
 70
     1
102
RTVSPost2010Prop35
280
     0
102
RTVSPost2010PropOp35
 70
     1
102
RTVSPost2010Prop36
280
     0
102
RTVSPost2010PropOp36
 70
     1
102
RTVSPost2010Prop37
 90
       50
102
RTVSPost2010PropOp37
 70
     1
102
RTVSPost2010Prop38
140
0.0
102
RTVSPost2010PropOp38
 70
     1
102
RTVSPost2010Prop39
140
1.0
102
RTVSPost2010PropOp39
 70
     1
102
RTVSPost2010Prop40
 90
        0
102
RTVSPost2010PropOp40
 70
     1
102
RTVSPost2010Prop41ColorIndex
 90
       18
102
RTVSPost2010Prop41ColorRGB
 90
        0
102
RTVSPost2010PropOp41
 70
     1
102
RTVSPost2010Prop42
 90
       50
102
RTVSPost2010PropOp42
 70
     1
102
RTVSPost2010Prop43
 90
        3
102
RTVSPost2010PropOp43
 70
     1
102
RTVSPost2010Prop44ColorIndex
 90
        5
102
RTVSPost2010Prop44ColorRGB
 90
      255
102
RTVSPost2010PropOp44
 70
     1
102
RTVSPost2010Prop45
280
     0
102
RTVSPost2010PropOp45
 70
     1
102
RTVSPost2010Prop46
 90
       50
102
RTVSPost2010PropOp46
 70
     1
102
RTVSPost2010Prop47
 90
       50
102
RTVSPost2010PropOp47
 70
     1
102
RTVSPost2010Prop48
 90
       50
102
RTVSPost2010PropOp48
 70
     1
102
RTVSPost2010Prop49
280
     0
102
RTVSPost2010PropOp49
 70
     1
102
RTVSPost2010Prop50
 90
       50
102
RTVSPost2010PropOp50
 70
     1
102
RTVSPost2010Prop51ColorIndex
 90
      256
102
RTVSPost2010Prop51ColorRGB
 90
-16777216
102
RTVSPost2010PropOp51
 70
     0
102
RTVSPost2010Prop52
140
1.0
102
RTVSPost2010PropOp52
 70
     0
102
RTVSPost2010Prop53
 90
        2
102
RTVSPost2010PropOp53
 70
     1
102
RTVSPost2010Prop54
  1
strokes_ogs.tif
102
RTVSPost2010PropOp54
 70
     1
102
RTVSPost2010Prop55
280
     0
102
RTVSPost2010PropOp55
 70
     1
102
RTVSPost2010Prop56
140
1.0
102
RTVSPost2010PropOp56
 70
     1
102
RTVSPost2010Prop57
140
1.0
102
RTVSPost2010PropOp57
 70
     1
  0
XRECORD
  5
392
102
{ACAD_REACTORS
330
391
102
}
330
391
100
AcDbXrecord
280
     1
102
RTVSPropertyOp0
 70
     1
102
RTVSPropertyOp1
 70
     1
102
RTVSPropertyOp2
 70
     1
102
RTVSPropertyOp3
 70
     1
102
RTVSPropertyOp4
 70
     1
102
RTVSPropertyOp5
 70
     1
102
RTVSPropertyOp6
 70
     1
102
RTVSPropertyOp7
 70
     1
102
RTVSPropertyOp8
 70
     1
102
RTVSPropertyOp9
 70
     1
102
RTVSPropertyOp10
 70
     1
102
RTVSPropertyOp11
 70
     1
102
RTVSPropertyOp12
 70
     1
102
RTVSPropertyOp13
 70
     1
102
RTVSPropertyOp14
 70
     1
102
RTVSPropertyOp15
 70
     1
102
RTVSPropertyOp16
 70
     1
102
RTVSPropertyOp17
 70
     1
102
RTVSPropertyOp18
 70
     1
102
RTVSPropertyOp19
 70
     1
102
RTVSPropertyOp20
 70
     1
102
RTVSPropertyOp21
 70
     1
102
RTVSPropertyOp22
 70
     1
102
RTVSPropertyOp23
 70
     1
102
RTVSPropertyOp24
 70
     1
102
RTVSPropertyOp25
 70
     1
102
RTVSPropertyOp26
 70
     1
102
RTVSPropertyOp27
 70
     1
102
RTVSPropertyOp28
 70
     1
102
RTVSPropertyOp29
 70
     1
102
RTVSPropertyOp30
 70
     1
102
RTVSPropertyOp31
 70
     1
102
RTVSPropertyOp32
 70
     1
102
RTVSPropertyOp33
 70
     1
102
RTVSPropertyOp34
 70
     1
102
RTVSPropertyOp35
 70
     1
102
RTVSPropertyOp36
 70
     1
102
RTVSPropertyOp37
 70
     1
102
RTVSPropertyOp38
 70
     1
102
RTVSPropertyOp39
 70
     1
102
RTVSPropertyOp40
 70
     1
102
RTVSPropertyOp41
 70
     1
102
RTVSPropertyOp42
 70
     1
102
RTVSPropertyOp43
 70
     1
102
RTVSPropertyOp44
 70
     1
102
RTVSPropertyOp45
 70
     1
102
RTVSPropertyOp46
 70
     1
102
RTVSPropertyOp47
 70
     1
102
RTVSPropertyOp48
 70
     1
102
RTVSPropertyOp49
 70
     1
102
RTVSPropertyOp50
 70
     1
102
RTVSPropertyOp51
 70
     0
102
RTVSPropertyOp52
 70
     0
102
RTVSPropertyOp53
 70
     1
102
RTVSPropertyOp54
 70
     1
102
RTVSPropertyOp55
 70
     1
102
RTVSPropertyOp56
 70
     1
102
RTVSPropertyOp57
 70
     1
102
RTVSPost2010Prop28
280
     0
102
RTVSPost2010PropOp28
 70
     1
102
RTVSPost2010Prop29
280
     1
102
RTVSPost2010PropOp29
 70
     1
102
RTVSPost2010Prop30
280
     1
102
RTVSPost2010PropOp30
 70
     1
102
RTVSPost2010Prop31
280
     0
102
RTVSPost2010PropOp31
 70
     1
102
RTVSPost2010Prop32
280
     0
102
RTVSPost2010PropOp32
 70
     1
102
RTVSPost2010Prop33
280
     0
102
RTVSPost2010PropOp33
 70
     1
102
RTVSPost2010Prop34
280
     0
102
RTVSPost2010PropOp34
 70
     1
102
RTVSPost2010Prop35
280
     0
102
RTVSPost2010PropOp35
 70
     1
102
RTVSPost2010Prop36
280
     0
102
RTVSPost2010PropOp36
 70
     1
102
RTVSPost2010Prop37
 90
       50
102
RTVSPost2010PropOp37
 70
     1
102
RTVSPost2010Prop38
140
0.0
102
RTVSPost2010PropOp38
 70
     1
102
RTVSPost2010Prop39
140
1.0
102
RTVSPost2010PropOp39
 70
     1
102
RTVSPost2010Prop40
 90
        0
102
RTVSPost2010PropOp40
 70
     1
102
RTVSPost2010Prop41ColorIndex
 90
       18
102
RTVSPost2010Prop41ColorRGB
 90
        0
102
RTVSPost2010PropOp41
 70
     1
102
RTVSPost2010Prop42
 90
       50
102
RTVSPost2010PropOp42
 70
     1
102
RTVSPost2010Prop43
 90
        3
102
RTVSPost2010PropOp43
 70
     1
102
RTVSPost2010Prop44ColorIndex
 90
        5
102
RTVSPost2010Prop44ColorRGB
 90
      255
102
RTVSPost2010PropOp44
 70
     1
102
RTVSPost2010Prop45
280
     0
102
RTVSPost2010PropOp45
 70
     1
102
RTVSPost2010Prop46
 90
       50
102
RTVSPost2010PropOp46
 70
     1
102
RTVSPost2010Prop47
 90
       50
102
RTVSPost2010PropOp47
 70
     1
102
RTVSPost2010Prop48
 90
       50
102
RTVSPost2010PropOp48
 70
     1
102
RTVSPost2010Prop49
280
     0
102
RTVSPost2010PropOp49
 70
     1
102
RTVSPost2010Prop50
 90
       50
102
RTVSPost2010PropOp50
 70
     1
102
RTVSPost2010Prop51ColorIndex
 90
      256
102
RTVSPost2010Prop51ColorRGB
 90
-16777216
102
RTVSPost2010PropOp51
 70
     0
102
RTVSPost2010Prop52
140
1.0
102
RTVSPost2010PropOp52
 70
     0
102
RTVSPost2010Prop53
 90
        2
102
RTVSPost2010PropOp53
 70
     1
102
RTVSPost2010Prop54
  1
strokes_ogs.tif
102
RTVSPost2010PropOp54
 70
     1
102
RTVSPost2010Prop55
280
     0
102
RTVSPost2010PropOp55
 70
     1
102
RTVSPost2010Prop56
140
1.0
102
RTVSPost2010PropOp56
 70
     1
102
RTVSPost2010Prop57
140
1.0
102
RTVSPost2010PropOp57
 70
     1
  0
XRECORD
  5
3A6
102
{ACAD_REACTORS
330
3A5
102
}
330
3A5
100
AcDbXrecord
280
     1
102
RTVSPropertyOp0
 70
     0
102
RTVSPropertyOp1
 70
     0
102
RTVSPropertyOp2
 70
     0
102
RTVSPropertyOp3
 70
     0
102
RTVSPropertyOp4
 70
     0
102
RTVSPropertyOp5
 70
     0
102
RTVSPropertyOp6
 70
     0
102
RTVSPropertyOp7
 70
     0
102
RTVSPropertyOp8
 70
     0
102
RTVSPropertyOp9
 70
     0
102
RTVSPropertyOp10
 70
     0
102
RTVSPropertyOp11
 70
     0
102
RTVSPropertyOp12
 70
     0
102
RTVSPropertyOp13
 70
     0
102
RTVSPropertyOp14
 70
     2
102
RTVSPropertyOp15
 70
     0
102
RTVSPropertyOp16
 70
     0
102
RTVSPropertyOp17
 70
     0
102
RTVSPropertyOp18
 70
     0
102
RTVSPropertyOp19
 70
     0
102
RTVSPropertyOp20
 70
     0
102
RTVSPropertyOp21
 70
     0
102
RTVSPropertyOp22
 70
     0
102
RTVSPropertyOp23
 70
     0
102
RTVSPropertyOp24
 70
     0
102
RTVSPropertyOp25
 70
     0
102
RTVSPropertyOp26
 70
     0
102
RTVSPropertyOp27
 70
     0
102
RTVSPropertyOp28
 70
     0
102
RTVSPropertyOp29
 70
     0
102
RTVSPropertyOp30
 70
     0
102
RTVSPropertyOp31
 70
     0
102
RTVSPropertyOp32
 70
     0
102
RTVSPropertyOp33
 70
     0
102
RTVSPropertyOp34
 70
     0
102
RTVSPropertyOp35
 70
     0
102
RTVSPropertyOp36
 70
     0
102
RTVSPropertyOp37
 70
     0
102
RTVSPropertyOp38
 70
     0
102
RTVSPropertyOp39
 70
     0
102
RTVSPropertyOp40
 70
     0
102
RTVSPropertyOp41
 70
     0
102
RTVSPropertyOp42
 70
     0
102
RTVSPropertyOp43
 70
     0
102
RTVSPropertyOp44
 70
     0
102
RTVSPropertyOp45
 70
     0
102
RTVSPropertyOp46
 70
     0
102
RTVSPropertyOp47
 70
     0
102
RTVSPropertyOp48
 70
     0
102
RTVSPropertyOp49
 70
     0
102
RTVSPropertyOp50
 70
     0
102
RTVSPropertyOp51
 70
     0
102
RTVSPropertyOp52
 70
     0
102
RTVSPropertyOp53
 70
     0
102
RTVSPropertyOp54
 70
     0
102
RTVSPropertyOp55
 70
     0
102
RTVSPropertyOp56
 70
     0
102
RTVSPropertyOp57
 70
     0
102
RTVSPost2010Prop28
280
     0
102
RTVSPost2010PropOp28
 70
     0
102
RTVSPost2010Prop29
280
     1
102
RTVSPost2010PropOp29
 70
     0
102
RTVSPost2010Prop30
280
     1
102
RTVSPost2010PropOp30
 70
     0
102
RTVSPost2010Prop31
280
     0
102
RTVSPost2010PropOp31
 70
     0
102
RTVSPost2010Prop32
280
     0
102
RTVSPost2010PropOp32
 70
     0
102
RTVSPost2010Prop33
280
     0
102
RTVSPost2010PropOp33
 70
     0
102
RTVSPost2010Prop34
280
     0
102
RTVSPost2010PropOp34
 70
     0
102
RTVSPost2010Prop35
280
     0
102
RTVSPost2010PropOp35
 70
     0
102
RTVSPost2010Prop36
280
     0
102
RTVSPost2010PropOp36
 70
     0
102
RTVSPost2010Prop37
 90
       50
102
RTVSPost2010PropOp37
 70
     0
102
RTVSPost2010Prop38
140
0.0
102
RTVSPost2010PropOp38
 70
     0
102
RTVSPost2010Prop39
140
1.0
102
RTVSPost2010PropOp39
 70
     0
102
RTVSPost2010Prop40
 90
        0
102
RTVSPost2010PropOp40
 70
     0
102
RTVSPost2010Prop41ColorIndex
 90
       18
102
RTVSPost2010Prop41ColorRGB
 90
        0
102
RTVSPost2010PropOp41
 70
     0
102
RTVSPost2010Prop42
 90
       50
102
RTVSPost2010PropOp42
 70
     0
102
RTVSPost2010Prop43
 90
        3
102
RTVSPost2010PropOp43
 70
     0
102
RTVSPost2010Prop44ColorIndex
 90
        5
102
RTVSPost2010Prop44ColorRGB
 90
      255
102
RTVSPost2010PropOp44
 70
     0
102
RTVSPost2010Prop45
280
     0
102
RTVSPost2010PropOp45
 70
     0
102
RTVSPost2010Prop46
 90
       50
102
RTVSPost2010PropOp46
 70
     0
102
RTVSPost2010Prop47
 90
       50
102
RTVSPost2010PropOp47
 70
     0
102
RTVSPost2010Prop48
 90
       50
102
RTVSPost2010PropOp48
 70
     0
102
RTVSPost2010Prop49
280
     0
102
RTVSPost2010PropOp49
 70
     0
102
RTVSPost2010Prop50
 90
       50
102
RTVSPost2010PropOp50
 70
     0
102
RTVSPost2010Prop51ColorIndex
 90
      256
102
RTVSPost2010Prop51ColorRGB
 90
-16777216
102
RTVSPost2010PropOp51
 70
     0
102
RTVSPost2010Prop52
140
1.0
102
RTVSPost2010PropOp52
 70
     0
102
RTVSPost2010Prop53
 90
        2
102
RTVSPost2010PropOp53
 70
     0
102
RTVSPost2010Prop54
  1
strokes_ogs.tif
102
RTVSPost2010PropOp54
 70
     0
102
RTVSPost2010Prop55
280
     0
102
RTVSPost2010PropOp55
 70
     0
102
RTVSPost2010Prop56
140
1.0
102
RTVSPost2010PropOp56
 70
     0
102
RTVSPost2010Prop57
140
1.0
102
RTVSPost2010PropOp57
 70
     0
  0
XRECORD
  5
3A0
102
{ACAD_REACTORS
330
39F
102
}
330
39F
100
AcDbXrecord
280
     1
102
RTVSPropertyOp0
 70
     1
102
RTVSPropertyOp1
 70
     1
102
RTVSPropertyOp2
 70
     1
102
RTVSPropertyOp3
 70
     1
102
RTVSPropertyOp4
 70
     1
102
RTVSPropertyOp5
 70
     1
102
RTVSPropertyOp6
 70
     1
102
RTVSPropertyOp7
 70
     1
102
RTVSPropertyOp8
 70
     1
102
RTVSPropertyOp9
 70
     1
102
RTVSPropertyOp10
 70
     1
102
RTVSPropertyOp11
 70
     1
102
RTVSPropertyOp12
 70
     1
102
RTVSPropertyOp13
 70
     1
102
RTVSPropertyOp14
 70
     1
102
RTVSPropertyOp15
 70
     1
102
RTVSPropertyOp16
 70
     1
102
RTVSPropertyOp17
 70
     1
102
RTVSPropertyOp18
 70
     1
102
RTVSPropertyOp19
 70
     1
102
RTVSPropertyOp20
 70
     1
102
RTVSPropertyOp21
 70
     1
102
RTVSPropertyOp22
 70
     1
102
RTVSPropertyOp23
 70
     1
102
RTVSPropertyOp24
 70
     1
102
RTVSPropertyOp25
 70
     1
102
RTVSPropertyOp26
 70
     1
102
RTVSPropertyOp27
 70
     1
102
RTVSPropertyOp28
 70
     1
102
RTVSPropertyOp29
 70
     1
102
RTVSPropertyOp30
 70
     1
102
RTVSPropertyOp31
 70
     1
102
RTVSPropertyOp32
 70
     1
102
RTVSPropertyOp33
 70
     1
102
RTVSPropertyOp34
 70
     1
102
RTVSPropertyOp35
 70
     1
102
RTVSPropertyOp36
 70
     1
102
RTVSPropertyOp37
 70
     1
102
RTVSPropertyOp38
 70
     1
102
RTVSPropertyOp39
 70
     1
102
RTVSPropertyOp40
 70
     1
102
RTVSPropertyOp41
 70
     1
102
RTVSPropertyOp42
 70
     1
102
RTVSPropertyOp43
 70
     1
102
RTVSPropertyOp44
 70
     1
102
RTVSPropertyOp45
 70
     1
102
RTVSPropertyOp46
 70
     1
102
RTVSPropertyOp47
 70
     1
102
RTVSPropertyOp48
 70
     1
102
RTVSPropertyOp49
 70
     1
102
RTVSPropertyOp50
 70
     1
102
RTVSPropertyOp51
 70
     0
102
RTVSPropertyOp52
 70
     0
102
RTVSPropertyOp53
 70
     1
102
RTVSPropertyOp54
 70
     1
102
RTVSPropertyOp55
 70
     1
102
RTVSPropertyOp56
 70
     1
102
RTVSPropertyOp57
 70
     1
102
RTVSPost2010Prop28
280
     0
102
RTVSPost2010PropOp28
 70
     1
102
RTVSPost2010Prop29
280
     1
102
RTVSPost2010PropOp29
 70
     1
102
RTVSPost2010Prop30
280
     1
102
RTVSPost2010PropOp30
 70
     1
102
RTVSPost2010Prop31
280
     0
102
RTVSPost2010PropOp31
 70
     1
102
RTVSPost2010Prop32
280
     0
102
RTVSPost2010PropOp32
 70
     1
102
RTVSPost2010Prop33
280
     0
102
RTVSPost2010PropOp33
 70
     1
102
RTVSPost2010Prop34
280
     0
102
RTVSPost2010PropOp34
 70
     1
102
RTVSPost2010Prop35
280
     0
102
RTVSPost2010PropOp35
 70
     1
102
RTVSPost2010Prop36
280
     0
102
RTVSPost2010PropOp36
 70
     1
102
RTVSPost2010Prop37
 90
       50
102
RTVSPost2010PropOp37
 70
     1
102
RTVSPost2010Prop38
140
0.0
102
RTVSPost2010PropOp38
 70
     1
102
RTVSPost2010Prop39
140
1.0
102
RTVSPost2010PropOp39
 70
     1
102
RTVSPost2010Prop40
 90
        0
102
RTVSPost2010PropOp40
 70
     1
102
RTVSPost2010Prop41ColorIndex
 90
       18
102
RTVSPost2010Prop41ColorRGB
 90
        0
102
RTVSPost2010PropOp41
 70
     1
102
RTVSPost2010Prop42
 90
       50
102
RTVSPost2010PropOp42
 70
     1
102
RTVSPost2010Prop43
 90
        3
102
RTVSPost2010PropOp43
 70
     1
102
RTVSPost2010Prop44ColorIndex
 90
        5
102
RTVSPost2010Prop44ColorRGB
 90
      255
102
RTVSPost2010PropOp44
 70
     1
102
RTVSPost2010Prop45
280
     0
102
RTVSPost2010PropOp45
 70
     1
102
RTVSPost2010Prop46
 90
       50
102
RTVSPost2010PropOp46
 70
     1
102
RTVSPost2010Prop47
 90
       50
102
RTVSPost2010PropOp47
 70
     1
102
RTVSPost2010Prop48
 90
       50
102
RTVSPost2010PropOp48
 70
     1
102
RTVSPost2010Prop49
280
     0
102
RTVSPost2010PropOp49
 70
     1
102
RTVSPost2010Prop50
 90
       50
102
RTVSPost2010PropOp50
 70
     1
102
RTVSPost2010Prop51ColorIndex
 90
      256
102
RTVSPost2010Prop51ColorRGB
 90
-16777216
102
RTVSPost2010PropOp51
 70
     0
102
RTVSPost2010Prop52
140
1.0
102
RTVSPost2010PropOp52
 70
     0
102
RTVSPost2010Prop53
 90
        2
102
RTVSPost2010PropOp53
 70
     1
102
RTVSPost2010Prop54
  1
strokes_ogs.tif
102
RTVSPost2010PropOp54
 70
     1
102
RTVSPost2010Prop55
280
     0
102
RTVSPost2010PropOp55
 70
     1
102
RTVSPost2010Prop56
140
1.0
102
RTVSPost2010PropOp56
 70
     1
102
RTVSPost2010Prop57
140
1.0
102
RTVSPost2010PropOp57
 70
     1
  0
XRECORD
  5
3A8
102
{ACAD_REACTORS
330
3A7
102
}
330
3A7
100
AcDbXrecord
280
     1
102
RTVSPropertyOp0
 70
     0
102
RTVSPropertyOp1
 70
     0
102
RTVSPropertyOp2
 70
     0
102
RTVSPropertyOp3
 70
     0
102
RTVSPropertyOp4
 70
     0
102
RTVSPropertyOp5
 70
     0
102
RTVSPropertyOp6
 70
     0
102
RTVSPropertyOp7
 70
     0
102
RTVSPropertyOp8
 70
     0
102
RTVSPropertyOp9
 70
     0
102
RTVSPropertyOp10
 70
     0
102
RTVSPropertyOp11
 70
     0
102
RTVSPropertyOp12
 70
     0
102
RTVSPropertyOp13
 70
     0
102
RTVSPropertyOp14
 70
     2
102
RTVSPropertyOp15
 70
     0
102
RTVSPropertyOp16
 70
     0
102
RTVSPropertyOp17
 70
     0
102
RTVSPropertyOp18
 70
     0
102
RTVSPropertyOp19
 70
     0
102
RTVSPropertyOp20
 70
     0
102
RTVSPropertyOp21
 70
     0
102
RTVSPropertyOp22
 70
     0
102
RTVSPropertyOp23
 70
     0
102
RTVSPropertyOp24
 70
     0
102
RTVSPropertyOp25
 70
     0
102
RTVSPropertyOp26
 70
     0
102
RTVSPropertyOp27
 70
     0
102
RTVSPropertyOp28
 70
     0
102
RTVSPropertyOp29
 70
     0
102
RTVSPropertyOp30
 70
     0
102
RTVSPropertyOp31
 70
     0
102
RTVSPropertyOp32
 70
     0
102
RTVSPropertyOp33
 70
     0
102
RTVSPropertyOp34
 70
     0
102
RTVSPropertyOp35
 70
     0
102
RTVSPropertyOp36
 70
     0
102
RTVSPropertyOp37
 70
     0
102
RTVSPropertyOp38
 70
     0
102
RTVSPropertyOp39
 70
     0
102
RTVSPropertyOp40
 70
     0
102
RTVSPropertyOp41
 70
     0
102
RTVSPropertyOp42
 70
     0
102
RTVSPropertyOp43
 70
     0
102
RTVSPropertyOp44
 70
     0
102
RTVSPropertyOp45
 70
     0
102
RTVSPropertyOp46
 70
     0
102
RTVSPropertyOp47
 70
     0
102
RTVSPropertyOp48
 70
     0
102
RTVSPropertyOp49
 70
     0
102
RTVSPropertyOp50
 70
     0
102
RTVSPropertyOp51
 70
     0
102
RTVSPropertyOp52
 70
     0
102
RTVSPropertyOp53
 70
     0
102
RTVSPropertyOp54
 70
     0
102
RTVSPropertyOp55
 70
     0
102
RTVSPropertyOp56
 70
     0
102
RTVSPropertyOp57
 70
     0
102
RTVSPost2010Prop28
280
     0
102
RTVSPost2010PropOp28
 70
     0
102
RTVSPost2010Prop29
280
     1
102
RTVSPost2010PropOp29
 70
     0
102
RTVSPost2010Prop30
280
     1
102
RTVSPost2010PropOp30
 70
     0
102
RTVSPost2010Prop31
280
     0
102
RTVSPost2010PropOp31
 70
     0
102
RTVSPost2010Prop32
280
     0
102
RTVSPost2010PropOp32
 70
     0
102
RTVSPost2010Prop33
280
     0
102
RTVSPost2010PropOp33
 70
     0
102
RTVSPost2010Prop34
280
     0
102
RTVSPost2010PropOp34
 70
     0
102
RTVSPost2010Prop35
280
     0
102
RTVSPost2010PropOp35
 70
     0
102
RTVSPost2010Prop36
280
     0
102
RTVSPost2010PropOp36
 70
     0
102
RTVSPost2010Prop37
 90
       50
102
RTVSPost2010PropOp37
 70
     0
102
RTVSPost2010Prop38
140
0.0
102
RTVSPost2010PropOp38
 70
     0
102
RTVSPost2010Prop39
140
1.0
102
RTVSPost2010PropOp39
 70
     0
102
RTVSPost2010Prop40
 90
        0
102
RTVSPost2010PropOp40
 70
     0
102
RTVSPost2010Prop41ColorIndex
 90
       18
102
RTVSPost2010Prop41ColorRGB
 90
        0
102
RTVSPost2010PropOp41
 70
     0
102
RTVSPost2010Prop42
 90
       50
102
RTVSPost2010PropOp42
 70
     0
102
RTVSPost2010Prop43
 90
        3
102
RTVSPost2010PropOp43
 70
     0
102
RTVSPost2010Prop44ColorIndex
 90
        5
102
RTVSPost2010Prop44ColorRGB
 90
      255
102
RTVSPost2010PropOp44
 70
     0
102
RTVSPost2010Prop45
280
     0
102
RTVSPost2010PropOp45
 70
     0
102
RTVSPost2010Prop46
 90
       50
102
RTVSPost2010PropOp46
 70
     0
102
RTVSPost2010Prop47
 90
       50
102
RTVSPost2010PropOp47
 70
     0
102
RTVSPost2010Prop48
 90
       50
102
RTVSPost2010PropOp48
 70
     0
102
RTVSPost2010Prop49
280
     0
102
RTVSPost2010PropOp49
 70
     0
102
RTVSPost2010Prop50
 90
       50
102
RTVSPost2010PropOp50
 70
     0
102
RTVSPost2010Prop51ColorIndex
 90
      256
102
RTVSPost2010Prop51ColorRGB
 90
-16777216
102
RTVSPost2010PropOp51
 70
     0
102
RTVSPost2010Prop52
140
1.0
102
RTVSPost2010PropOp52
 70
     0
102
RTVSPost2010Prop53
 90
        2
102
RTVSPost2010PropOp53
 70
     0
102
RTVSPost2010Prop54
  1
strokes_ogs.tif
102
RTVSPost2010PropOp54
 70
     0
102
RTVSPost2010Prop55
280
     0
102
RTVSPost2010PropOp55
 70
     0
102
RTVSPost2010Prop56
140
1.0
102
RTVSPost2010PropOp56
 70
     0
102
RTVSPost2010Prop57
140
1.0
102
RTVSPost2010PropOp57
 70
     0
  0
XRECORD
  5
396
102
{ACAD_REACTORS
330
395
102
}
330
395
100
AcDbXrecord
280
     1
102
RTVSPropertyOp0
 70
     1
102
RTVSPropertyOp1
 70
     1
102
RTVSPropertyOp2
 70
     1
102
RTVSPropertyOp3
 70
     1
102
RTVSPropertyOp4
 70
     1
102
RTVSPropertyOp5
 70
     1
102
RTVSPropertyOp6
 70
     1
102
RTVSPropertyOp7
 70
     1
102
RTVSPropertyOp8
 70
     1
102
RTVSPropertyOp9
 70
     1
102
RTVSPropertyOp10
 70
     1
102
RTVSPropertyOp11
 70
     1
102
RTVSPropertyOp12
 70
     1
102
RTVSPropertyOp13
 70
     1
102
RTVSPropertyOp14
 70
     1
102
RTVSPropertyOp15
 70
     1
102
RTVSPropertyOp16
 70
     1
102
RTVSPropertyOp17
 70
     1
102
RTVSPropertyOp18
 70
     1
102
RTVSPropertyOp19
 70
     1
102
RTVSPropertyOp20
 70
     1
102
RTVSPropertyOp21
 70
     1
102
RTVSPropertyOp22
 70
     1
102
RTVSPropertyOp23
 70
     1
102
RTVSPropertyOp24
 70
     1
102
RTVSPropertyOp25
 70
     1
102
RTVSPropertyOp26
 70
     1
102
RTVSPropertyOp27
 70
     1
102
RTVSPropertyOp28
 70
     1
102
RTVSPropertyOp29
 70
     1
102
RTVSPropertyOp30
 70
     1
102
RTVSPropertyOp31
 70
     1
102
RTVSPropertyOp32
 70
     1
102
RTVSPropertyOp33
 70
     1
102
RTVSPropertyOp34
 70
     1
102
RTVSPropertyOp35
 70
     1
102
RTVSPropertyOp36
 70
     1
102
RTVSPropertyOp37
 70
     1
102
RTVSPropertyOp38
 70
     1
102
RTVSPropertyOp39
 70
     1
102
RTVSPropertyOp40
 70
     1
102
RTVSPropertyOp41
 70
     1
102
RTVSPropertyOp42
 70
     1
102
RTVSPropertyOp43
 70
     1
102
RTVSPropertyOp44
 70
     1
102
RTVSPropertyOp45
 70
     1
102
RTVSPropertyOp46
 70
     1
102
RTVSPropertyOp47
 70
     1
102
RTVSPropertyOp48
 70
     1
102
RTVSPropertyOp49
 70
     1
102
RTVSPropertyOp50
 70
     1
102
RTVSPropertyOp51
 70
     0
102
RTVSPropertyOp52
 70
     0
102
RTVSPropertyOp53
 70
     1
102
RTVSPropertyOp54
 70
     1
102
RTVSPropertyOp55
 70
     1
102
RTVSPropertyOp56
 70
     1
102
RTVSPropertyOp57
 70
     1
102
RTVSPost2010Prop28
280
     0
102
RTVSPost2010PropOp28
 70
     1
102
RTVSPost2010Prop29
280
     1
102
RTVSPost2010PropOp29
 70
     1
102
RTVSPost2010Prop30
280
     1
102
RTVSPost2010PropOp30
 70
     1
102
RTVSPost2010Prop31
280
     0
102
RTVSPost2010PropOp31
 70
     1
102
RTVSPost2010Prop32
280
     0
102
RTVSPost2010PropOp32
 70
     1
102
RTVSPost2010Prop33
280
     0
102
RTVSPost2010PropOp33
 70
     1
102
RTVSPost2010Prop34
280
     0
102
RTVSPost2010PropOp34
 70
     1
102
RTVSPost2010Prop35
280
     0
102
RTVSPost2010PropOp35
 70
     1
102
RTVSPost2010Prop36
280
     0
102
RTVSPost2010PropOp36
 70
     1
102
RTVSPost2010Prop37
 90
       50
102
RTVSPost2010PropOp37
 70
     1
102
RTVSPost2010Prop38
140
0.0
102
RTVSPost2010PropOp38
 70
     1
102
RTVSPost2010Prop39
140
1.0
102
RTVSPost2010PropOp39
 70
     1
102
RTVSPost2010Prop40
 90
        0
102
RTVSPost2010PropOp40
 70
     1
102
RTVSPost2010Prop41ColorIndex
 90
       18
102
RTVSPost2010Prop41ColorRGB
 90
        0
102
RTVSPost2010PropOp41
 70
     1
102
RTVSPost2010Prop42
 90
       50
102
RTVSPost2010PropOp42
 70
     1
102
RTVSPost2010Prop43
 90
        3
102
RTVSPost2010PropOp43
 70
     1
102
RTVSPost2010Prop44ColorIndex
 90
        5
102
RTVSPost2010Prop44ColorRGB
 90
      255
102
RTVSPost2010PropOp44
 70
     1
102
RTVSPost2010Prop45
280
     0
102
RTVSPost2010PropOp45
 70
     1
102
RTVSPost2010Prop46
 90
       50
102
RTVSPost2010PropOp46
 70
     1
102
RTVSPost2010Prop47
 90
       50
102
RTVSPost2010PropOp47
 70
     1
102
RTVSPost2010Prop48
 90
       50
102
RTVSPost2010PropOp48
 70
     1
102
RTVSPost2010Prop49
280
     0
102
RTVSPost2010PropOp49
 70
     1
102
RTVSPost2010Prop50
 90
       50
102
RTVSPost2010PropOp50
 70
     1
102
RTVSPost2010Prop51ColorIndex
 90
      256
102
RTVSPost2010Prop51ColorRGB
 90
-16777216
102
RTVSPost2010PropOp51
 70
     0
102
RTVSPost2010Prop52
140
1.0
102
RTVSPost2010PropOp52
 70
     0
102
RTVSPost2010Prop53
 90
        2
102
RTVSPost2010PropOp53
 70
     1
102
RTVSPost2010Prop54
  1
strokes_ogs.tif
102
RTVSPost2010PropOp54
 70
     1
102
RTVSPost2010Prop55
280
     0
102
RTVSPost2010PropOp55
 70
     1
102
RTVSPost2010Prop56
140
1.0
102
RTVSPost2010PropOp56
 70
     1
102
RTVSPost2010Prop57
140
1.0
102
RTVSPost2010PropOp57
 70
     1
  0
XRECORD
  5
3B4
102
{ACAD_REACTORS
330
3B3
102
}
330
3B3
100
AcDbXrecord
280
     1
102
RTVSPropertyOp0
 70
     1
102
RTVSPropertyOp1
 70
     1
102
RTVSPropertyOp2
 70
     1
102
RTVSPropertyOp3
 70
     1
102
RTVSPropertyOp4
 70
     1
102
RTVSPropertyOp5
 70
     1
102
RTVSPropertyOp6
 70
     1
102
RTVSPropertyOp7
 70
     1
102
RTVSPropertyOp8
 70
     1
102
RTVSPropertyOp9
 70
     1
102
RTVSPropertyOp10
 70
     1
102
RTVSPropertyOp11
 70
     1
102
RTVSPropertyOp12
 70
     1
102
RTVSPropertyOp13
 70
     1
102
RTVSPropertyOp14
 70
     1
102
RTVSPropertyOp15
 70
     1
102
RTVSPropertyOp16
 70
     1
102
RTVSPropertyOp17
 70
     1
102
RTVSPropertyOp18
 70
     1
102
RTVSPropertyOp19
 70
     1
102
RTVSPropertyOp20
 70
     1
102
RTVSPropertyOp21
 70
     1
102
RTVSPropertyOp22
 70
     1
102
RTVSPropertyOp23
 70
     1
102
RTVSPropertyOp24
 70
     1
102
RTVSPropertyOp25
 70
     1
102
RTVSPropertyOp26
 70
     1
102
RTVSPropertyOp27
 70
     1
102
RTVSPropertyOp28
 70
     1
102
RTVSPropertyOp29
 70
     1
102
RTVSPropertyOp30
 70
     1
102
RTVSPropertyOp31
 70
     1
102
RTVSPropertyOp32
 70
     1
102
RTVSPropertyOp33
 70
     1
102
RTVSPropertyOp34
 70
     1
102
RTVSPropertyOp35
 70
     1
102
RTVSPropertyOp36
 70
     1
102
RTVSPropertyOp37
 70
     1
102
RTVSPropertyOp38
 70
     1
102
RTVSPropertyOp39
 70
     1
102
RTVSPropertyOp40
 70
     1
102
RTVSPropertyOp41
 70
     1
102
RTVSPropertyOp42
 70
     1
102
RTVSPropertyOp43
 70
     1
102
RTVSPropertyOp44
 70
     1
102
RTVSPropertyOp45
 70
     1
102
RTVSPropertyOp46
 70
     1
102
RTVSPropertyOp47
 70
     1
102
RTVSPropertyOp48
 70
     1
102
RTVSPropertyOp49
 70
     1
102
RTVSPropertyOp50
 70
     1
102
RTVSPropertyOp51
 70
     0
102
RTVSPropertyOp52
 70
     0
102
RTVSPropertyOp53
 70
     1
102
RTVSPropertyOp54
 70
     1
102
RTVSPropertyOp55
 70
     1
102
RTVSPropertyOp56
 70
     1
102
RTVSPropertyOp57
 70
     1
102
RTVSPost2010Prop28
280
     0
102
RTVSPost2010PropOp28
 70
     1
102
RTVSPost2010Prop29
280
     1
102
RTVSPost2010PropOp29
 70
     1
102
RTVSPost2010Prop30
280
     1
102
RTVSPost2010PropOp30
 70
     1
102
RTVSPost2010Prop31
280
     0
102
RTVSPost2010PropOp31
 70
     1
102
RTVSPost2010Prop32
280
     0
102
RTVSPost2010PropOp32
 70
     1
102
RTVSPost2010Prop33
280
     0
102
RTVSPost2010PropOp33
 70
     1
102
RTVSPost2010Prop34
280
     0
102
RTVSPost2010PropOp34
 70
     1
102
RTVSPost2010Prop35
280
     0
102
RTVSPost2010PropOp35
 70
     1
102
RTVSPost2010Prop36
280
     0
102
RTVSPost2010PropOp36
 70
     1
102
RTVSPost2010Prop37
 90
       50
102
RTVSPost2010PropOp37
 70
     1
102
RTVSPost2010Prop38
140
0.0
102
RTVSPost2010PropOp38
 70
     1
102
RTVSPost2010Prop39
140
1.0
102
RTVSPost2010PropOp39
 70
     1
102
RTVSPost2010Prop40
 90
        0
102
RTVSPost2010PropOp40
 70
     1
102
RTVSPost2010Prop41ColorIndex
 90
       18
102
RTVSPost2010Prop41ColorRGB
 90
        0
102
RTVSPost2010PropOp41
 70
     1
102
RTVSPost2010Prop42
 90
       50
102
RTVSPost2010PropOp42
 70
     1
102
RTVSPost2010Prop43
 90
        3
102
RTVSPost2010PropOp43
 70
     1
102
RTVSPost2010Prop44ColorIndex
 90
        5
102
RTVSPost2010Prop44ColorRGB
 90
      255
102
RTVSPost2010PropOp44
 70
     1
102
RTVSPost2010Prop45
280
     0
102
RTVSPost2010PropOp45
 70
     1
102
RTVSPost2010Prop46
 90
       50
102
RTVSPost2010PropOp46
 70
     1
102
RTVSPost2010Prop47
 90
       50
102
RTVSPost2010PropOp47
 70
     1
102
RTVSPost2010Prop48
 90
       50
102
RTVSPost2010PropOp48
 70
     1
102
RTVSPost2010Prop49
280
     0
102
RTVSPost2010PropOp49
 70
     1
102
RTVSPost2010Prop50
 90
       50
102
RTVSPost2010PropOp50
 70
     1
102
RTVSPost2010Prop51ColorIndex
 90
      256
102
RTVSPost2010Prop51ColorRGB
 90
-16777216
102
RTVSPost2010PropOp51
 70
     0
102
RTVSPost2010Prop52
140
1.0
102
RTVSPost2010PropOp52
 70
     0
102
RTVSPost2010Prop53
 90
        2
102
RTVSPost2010PropOp53
 70
     1
102
RTVSPost2010Prop54
  1
strokes_ogs.tif
102
RTVSPost2010PropOp54
 70
     1
102
RTVSPost2010Prop55
280
     0
102
RTVSPost2010PropOp55
 70
     1
102
RTVSPost2010Prop56
140
1.0
102
RTVSPost2010PropOp56
 70
     1
102
RTVSPost2010Prop57
140
1.0
102
RTVSPost2010PropOp57
 70
     1
  0
XRECORD
  5
3B2
102
{ACAD_REACTORS
330
3B1
102
}
330
3B1
100
AcDbXrecord
280
     1
102
RTVSPropertyOp0
 70
     1
102
RTVSPropertyOp1
 70
     1
102
RTVSPropertyOp2
 70
     1
102
RTVSPropertyOp3
 70
     1
102
RTVSPropertyOp4
 70
     1
102
RTVSPropertyOp5
 70
     1
102
RTVSPropertyOp6
 70
     1
102
RTVSPropertyOp7
 70
     1
102
RTVSPropertyOp8
 70
     1
102
RTVSPropertyOp9
 70
     1
102
RTVSPropertyOp10
 70
     1
102
RTVSPropertyOp11
 70
     1
102
RTVSPropertyOp12
 70
     1
102
RTVSPropertyOp13
 70
     1
102
RTVSPropertyOp14
 70
     1
102
RTVSPropertyOp15
 70
     1
102
RTVSPropertyOp16
 70
     1
102
RTVSPropertyOp17
 70
     1
102
RTVSPropertyOp18
 70
     1
102
RTVSPropertyOp19
 70
     1
102
RTVSPropertyOp20
 70
     1
102
RTVSPropertyOp21
 70
     1
102
RTVSPropertyOp22
 70
     1
102
RTVSPropertyOp23
 70
     1
102
RTVSPropertyOp24
 70
     1
102
RTVSPropertyOp25
 70
     1
102
RTVSPropertyOp26
 70
     1
102
RTVSPropertyOp27
 70
     1
102
RTVSPropertyOp28
 70
     1
102
RTVSPropertyOp29
 70
     1
102
RTVSPropertyOp30
 70
     1
102
RTVSPropertyOp31
 70
     1
102
RTVSPropertyOp32
 70
     1
102
RTVSPropertyOp33
 70
     1
102
RTVSPropertyOp34
 70
     1
102
RTVSPropertyOp35
 70
     1
102
RTVSPropertyOp36
 70
     1
102
RTVSPropertyOp37
 70
     1
102
RTVSPropertyOp38
 70
     1
102
RTVSPropertyOp39
 70
     1
102
RTVSPropertyOp40
 70
     1
102
RTVSPropertyOp41
 70
     1
102
RTVSPropertyOp42
 70
     1
102
RTVSPropertyOp43
 70
     1
102
RTVSPropertyOp44
 70
     1
102
RTVSPropertyOp45
 70
     1
102
RTVSPropertyOp46
 70
     1
102
RTVSPropertyOp47
 70
     1
102
RTVSPropertyOp48
 70
     1
102
RTVSPropertyOp49
 70
     1
102
RTVSPropertyOp50
 70
     1
102
RTVSPropertyOp51
 70
     0
102
RTVSPropertyOp52
 70
     0
102
RTVSPropertyOp53
 70
     1
102
RTVSPropertyOp54
 70
     1
102
RTVSPropertyOp55
 70
     1
102
RTVSPropertyOp56
 70
     1
102
RTVSPropertyOp57
 70
     1
102
RTVSPost2010Prop28
280
     0
102
RTVSPost2010PropOp28
 70
     1
102
RTVSPost2010Prop29
280
     1
102
RTVSPost2010PropOp29
 70
     1
102
RTVSPost2010Prop30
280
     1
102
RTVSPost2010PropOp30
 70
     1
102
RTVSPost2010Prop31
280
     0
102
RTVSPost2010PropOp31
 70
     1
102
RTVSPost2010Prop32
280
     0
102
RTVSPost2010PropOp32
 70
     1
102
RTVSPost2010Prop33
280
     0
102
RTVSPost2010PropOp33
 70
     1
102
RTVSPost2010Prop34
280
     0
102
RTVSPost2010PropOp34
 70
     1
102
RTVSPost2010Prop35
280
     0
102
RTVSPost2010PropOp35
 70
     1
102
RTVSPost2010Prop36
280
     0
102
RTVSPost2010PropOp36
 70
     1
102
RTVSPost2010Prop37
 90
       50
102
RTVSPost2010PropOp37
 70
     1
102
RTVSPost2010Prop38
140
0.0
102
RTVSPost2010PropOp38
 70
     1
102
RTVSPost2010Prop39
140
1.0
102
RTVSPost2010PropOp39
 70
     1
102
RTVSPost2010Prop40
 90
        0
102
RTVSPost2010PropOp40
 70
     1
102
RTVSPost2010Prop41ColorIndex
 90
       18
102
RTVSPost2010Prop41ColorRGB
 90
        0
102
RTVSPost2010PropOp41
 70
     1
102
RTVSPost2010Prop42
 90
       50
102
RTVSPost2010PropOp42
 70
     1
102
RTVSPost2010Prop43
 90
        3
102
RTVSPost2010PropOp43
 70
     1
102
RTVSPost2010Prop44ColorIndex
 90
        5
102
RTVSPost2010Prop44ColorRGB
 90
      255
102
RTVSPost2010PropOp44
 70
     1
102
RTVSPost2010Prop45
280
     0
102
RTVSPost2010PropOp45
 70
     1
102
RTVSPost2010Prop46
 90
       50
102
RTVSPost2010PropOp46
 70
     1
102
RTVSPost2010Prop47
 90
       50
102
RTVSPost2010PropOp47
 70
     1
102
RTVSPost2010Prop48
 90
       50
102
RTVSPost2010PropOp48
 70
     1
102
RTVSPost2010Prop49
280
     0
102
RTVSPost2010PropOp49
 70
     1
102
RTVSPost2010Prop50
 90
       50
102
RTVSPost2010PropOp50
 70
     1
102
RTVSPost2010Prop51ColorIndex
 90
      256
102
RTVSPost2010Prop51ColorRGB
 90
-16777216
102
RTVSPost2010PropOp51
 70
     0
102
RTVSPost2010Prop52
140
1.0
102
RTVSPost2010PropOp52
 70
     0
102
RTVSPost2010Prop53
 90
        2
102
RTVSPost2010PropOp53
 70
     1
102
RTVSPost2010Prop54
  1
strokes_ogs.tif
102
RTVSPost2010PropOp54
 70
     1
102
RTVSPost2010Prop55
280
     0
102
RTVSPost2010PropOp55
 70
     1
102
RTVSPost2010Prop56
140
1.0
102
RTVSPost2010PropOp56
 70
     1
102
RTVSPost2010Prop57
140
1.0
102
RTVSPost2010PropOp57
 70
     1
  0
XRECORD
  5
3AC
102
{ACAD_REACTORS
330
3AB
102
}
330
3AB
100
AcDbXrecord
280
     1
102
RTVSPropertyOp0
 70
     1
102
RTVSPropertyOp1
 70
     1
102
RTVSPropertyOp2
 70
     1
102
RTVSPropertyOp3
 70
     1
102
RTVSPropertyOp4
 70
     1
102
RTVSPropertyOp5
 70
     1
102
RTVSPropertyOp6
 70
     1
102
RTVSPropertyOp7
 70
     1
102
RTVSPropertyOp8
 70
     1
102
RTVSPropertyOp9
 70
     1
102
RTVSPropertyOp10
 70
     1
102
RTVSPropertyOp11
 70
     1
102
RTVSPropertyOp12
 70
     1
102
RTVSPropertyOp13
 70
     1
102
RTVSPropertyOp14
 70
     1
102
RTVSPropertyOp15
 70
     1
102
RTVSPropertyOp16
 70
     1
102
RTVSPropertyOp17
 70
     1
102
RTVSPropertyOp18
 70
     1
102
RTVSPropertyOp19
 70
     1
102
RTVSPropertyOp20
 70
     1
102
RTVSPropertyOp21
 70
     1
102
RTVSPropertyOp22
 70
     1
102
RTVSPropertyOp23
 70
     1
102
RTVSPropertyOp24
 70
     1
102
RTVSPropertyOp25
 70
     1
102
RTVSPropertyOp26
 70
     1
102
RTVSPropertyOp27
 70
     1
102
RTVSPropertyOp28
 70
     1
102
RTVSPropertyOp29
 70
     1
102
RTVSPropertyOp30
 70
     1
102
RTVSPropertyOp31
 70
     1
102
RTVSPropertyOp32
 70
     1
102
RTVSPropertyOp33
 70
     1
102
RTVSPropertyOp34
 70
     1
102
RTVSPropertyOp35
 70
     1
102
RTVSPropertyOp36
 70
     1
102
RTVSPropertyOp37
 70
     1
102
RTVSPropertyOp38
 70
     1
102
RTVSPropertyOp39
 70
     1
102
RTVSPropertyOp40
 70
     1
102
RTVSPropertyOp41
 70
     1
102
RTVSPropertyOp42
 70
     1
102
RTVSPropertyOp43
 70
     1
102
RTVSPropertyOp44
 70
     1
102
RTVSPropertyOp45
 70
     1
102
RTVSPropertyOp46
 70
     1
102
RTVSPropertyOp47
 70
     1
102
RTVSPropertyOp48
 70
     1
102
RTVSPropertyOp49
 70
     1
102
RTVSPropertyOp50
 70
     1
102
RTVSPropertyOp51
 70
     0
102
RTVSPropertyOp52
 70
     0
102
RTVSPropertyOp53
 70
     1
102
RTVSPropertyOp54
 70
     1
102
RTVSPropertyOp55
 70
     1
102
RTVSPropertyOp56
 70
     1
102
RTVSPropertyOp57
 70
     1
102
RTVSPost2010Prop28
280
     0
102
RTVSPost2010PropOp28
 70
     1
102
RTVSPost2010Prop29
280
     1
102
RTVSPost2010PropOp29
 70
     1
102
RTVSPost2010Prop30
280
     1
102
RTVSPost2010PropOp30
 70
     1
102
RTVSPost2010Prop31
280
     0
102
RTVSPost2010PropOp31
 70
     1
102
RTVSPost2010Prop32
280
     0
102
RTVSPost2010PropOp32
 70
     1
102
RTVSPost2010Prop33
280
     0
102
RTVSPost2010PropOp33
 70
     1
102
RTVSPost2010Prop34
280
     0
102
RTVSPost2010PropOp34
 70
     1
102
RTVSPost2010Prop35
280
     0
102
RTVSPost2010PropOp35
 70
     1
102
RTVSPost2010Prop36
280
     0
102
RTVSPost2010PropOp36
 70
     1
102
RTVSPost2010Prop37
 90
       50
102
RTVSPost2010PropOp37
 70
     1
102
RTVSPost2010Prop38
140
0.0
102
RTVSPost2010PropOp38
 70
     1
102
RTVSPost2010Prop39
140
1.0
102
RTVSPost2010PropOp39
 70
     1
102
RTVSPost2010Prop40
 90
        0
102
RTVSPost2010PropOp40
 70
     1
102
RTVSPost2010Prop41ColorIndex
 90
       18
102
RTVSPost2010Prop41ColorRGB
 90
        0
102
RTVSPost2010PropOp41
 70
     1
102
RTVSPost2010Prop42
 90
       50
102
RTVSPost2010PropOp42
 70
     1
102
RTVSPost2010Prop43
 90
        3
102
RTVSPost2010PropOp43
 70
     1
102
RTVSPost2010Prop44ColorIndex
 90
        5
102
RTVSPost2010Prop44ColorRGB
 90
      255
102
RTVSPost2010PropOp44
 70
     1
102
RTVSPost2010Prop45
280
     0
102
RTVSPost2010PropOp45
 70
     1
102
RTVSPost2010Prop46
 90
       50
102
RTVSPost2010PropOp46
 70
     1
102
RTVSPost2010Prop47
 90
       50
102
RTVSPost2010PropOp47
 70
     1
102
RTVSPost2010Prop48
 90
       50
102
RTVSPost2010PropOp48
 70
     1
102
RTVSPost2010Prop49
280
     0
102
RTVSPost2010PropOp49
 70
     1
102
RTVSPost2010Prop50
 90
       50
102
RTVSPost2010PropOp50
 70
     1
102
RTVSPost2010Prop51ColorIndex
 90
      256
102
RTVSPost2010Prop51ColorRGB
 90
-16777216
102
RTVSPost2010PropOp51
 70
     0
102
RTVSPost2010Prop52
140
1.0
102
RTVSPost2010PropOp52
 70
     0
102
RTVSPost2010Prop53
 90
        2
102
RTVSPost2010PropOp53
 70
     1
102
RTVSPost2010Prop54
  1
strokes_ogs.tif
102
RTVSPost2010PropOp54
 70
     1
102
RTVSPost2010Prop55
280
     0
102
RTVSPost2010PropOp55
 70
     1
102
RTVSPost2010Prop56
140
1.0
102
RTVSPost2010PropOp56
 70
     1
102
RTVSPost2010Prop57
140
1.0
102
RTVSPost2010PropOp57
 70
     1
  0
XRECORD
  5
3AE
102
{ACAD_REACTORS
330
3AD
102
}
330
3AD
100
AcDbXrecord
280
     1
102
RTVSPropertyOp0
 70
     1
102
RTVSPropertyOp1
 70
     1
102
RTVSPropertyOp2
 70
     1
102
RTVSPropertyOp3
 70
     1
102
RTVSPropertyOp4
 70
     1
102
RTVSPropertyOp5
 70
     1
102
RTVSPropertyOp6
 70
     1
102
RTVSPropertyOp7
 70
     1
102
RTVSPropertyOp8
 70
     1
102
RTVSPropertyOp9
 70
     1
102
RTVSPropertyOp10
 70
     1
102
RTVSPropertyOp11
 70
     1
102
RTVSPropertyOp12
 70
     1
102
RTVSPropertyOp13
 70
     1
102
RTVSPropertyOp14
 70
     1
102
RTVSPropertyOp15
 70
     1
102
RTVSPropertyOp16
 70
     1
102
RTVSPropertyOp17
 70
     1
102
RTVSPropertyOp18
 70
     1
102
RTVSPropertyOp19
 70
     1
102
RTVSPropertyOp20
 70
     1
102
RTVSPropertyOp21
 70
     1
102
RTVSPropertyOp22
 70
     1
102
RTVSPropertyOp23
 70
     1
102
RTVSPropertyOp24
 70
     1
102
RTVSPropertyOp25
 70
     1
102
RTVSPropertyOp26
 70
     1
102
RTVSPropertyOp27
 70
     1
102
RTVSPropertyOp28
 70
     1
102
RTVSPropertyOp29
 70
     1
102
RTVSPropertyOp30
 70
     1
102
RTVSPropertyOp31
 70
     1
102
RTVSPropertyOp32
 70
     1
102
RTVSPropertyOp33
 70
     1
102
RTVSPropertyOp34
 70
     1
102
RTVSPropertyOp35
 70
     1
102
RTVSPropertyOp36
 70
     1
102
RTVSPropertyOp37
 70
     1
102
RTVSPropertyOp38
 70
     1
102
RTVSPropertyOp39
 70
     1
102
RTVSPropertyOp40
 70
     1
102
RTVSPropertyOp41
 70
     1
102
RTVSPropertyOp42
 70
     1
102
RTVSPropertyOp43
 70
     1
102
RTVSPropertyOp44
 70
     1
102
RTVSPropertyOp45
 70
     1
102
RTVSPropertyOp46
 70
     1
102
RTVSPropertyOp47
 70
     1
102
RTVSPropertyOp48
 70
     1
102
RTVSPropertyOp49
 70
     1
102
RTVSPropertyOp50
 70
     1
102
RTVSPropertyOp51
 70
     0
102
RTVSPropertyOp52
 70
     0
102
RTVSPropertyOp53
 70
     1
102
RTVSPropertyOp54
 70
     1
102
RTVSPropertyOp55
 70
     1
102
RTVSPropertyOp56
 70
     1
102
RTVSPropertyOp57
 70
     1
102
RTVSPost2010Prop28
280
     0
102
RTVSPost2010PropOp28
 70
     1
102
RTVSPost2010Prop29
280
     1
102
RTVSPost2010PropOp29
 70
     1
102
RTVSPost2010Prop30
280
     1
102
RTVSPost2010PropOp30
 70
     1
102
RTVSPost2010Prop31
280
     0
102
RTVSPost2010PropOp31
 70
     1
102
RTVSPost2010Prop32
280
     0
102
RTVSPost2010PropOp32
 70
     1
102
RTVSPost2010Prop33
280
     0
102
RTVSPost2010PropOp33
 70
     1
102
RTVSPost2010Prop34
280
     0
102
RTVSPost2010PropOp34
 70
     1
102
RTVSPost2010Prop35
280
     0
102
RTVSPost2010PropOp35
 70
     1
102
RTVSPost2010Prop36
280
     0
102
RTVSPost2010PropOp36
 70
     1
102
RTVSPost2010Prop37
 90
       50
102
RTVSPost2010PropOp37
 70
     1
102
RTVSPost2010Prop38
140
0.0
102
RTVSPost2010PropOp38
 70
     1
102
RTVSPost2010Prop39
140
1.0
102
RTVSPost2010PropOp39
 70
     1
102
RTVSPost2010Prop40
 90
        0
102
RTVSPost2010PropOp40
 70
     1
102
RTVSPost2010Prop41ColorIndex
 90
       18
102
RTVSPost2010Prop41ColorRGB
 90
        0
102
RTVSPost2010PropOp41
 70
     1
102
RTVSPost2010Prop42
 90
       50
102
RTVSPost2010PropOp42
 70
     1
102
RTVSPost2010Prop43
 90
        3
102
RTVSPost2010PropOp43
 70
     1
102
RTVSPost2010Prop44ColorIndex
 90
        5
102
RTVSPost2010Prop44ColorRGB
 90
      255
102
RTVSPost2010PropOp44
 70
     1
102
RTVSPost2010Prop45
280
     0
102
RTVSPost2010PropOp45
 70
     1
102
RTVSPost2010Prop46
 90
       50
102
RTVSPost2010PropOp46
 70
     1
102
RTVSPost2010Prop47
 90
       50
102
RTVSPost2010PropOp47
 70
     1
102
RTVSPost2010Prop48
 90
       50
102
RTVSPost2010PropOp48
 70
     1
102
RTVSPost2010Prop49
280
     0
102
RTVSPost2010PropOp49
 70
     1
102
RTVSPost2010Prop50
 90
       50
102
RTVSPost2010PropOp50
 70
     1
102
RTVSPost2010Prop51ColorIndex
 90
      256
102
RTVSPost2010Prop51ColorRGB
 90
-16777216
102
RTVSPost2010PropOp51
 70
     0
102
RTVSPost2010Prop52
140
1.0
102
RTVSPost2010PropOp52
 70
     0
102
RTVSPost2010Prop53
 90
        2
102
RTVSPost2010PropOp53
 70
     1
102
RTVSPost2010Prop54
  1
strokes_ogs.tif
102
RTVSPost2010PropOp54
 70
     1
102
RTVSPost2010Prop55
280
     0
102
RTVSPost2010PropOp55
 70
     1
102
RTVSPost2010Prop56
140
1.0
102
RTVSPost2010PropOp56
 70
     1
102
RTVSPost2010Prop57
140
1.0
102
RTVSPost2010PropOp57
 70
     1
  0
XRECORD
  5
39E
102
{ACAD_REACTORS
330
39D
102
}
330
39D
100
AcDbXrecord
280
     1
102
RTVSPropertyOp0
 70
     1
102
RTVSPropertyOp1
 70
     1
102
RTVSPropertyOp2
 70
     1
102
RTVSPropertyOp3
 70
     1
102
RTVSPropertyOp4
 70
     1
102
RTVSPropertyOp5
 70
     1
102
RTVSPropertyOp6
 70
     1
102
RTVSPropertyOp7
 70
     1
102
RTVSPropertyOp8
 70
     1
102
RTVSPropertyOp9
 70
     1
102
RTVSPropertyOp10
 70
     1
102
RTVSPropertyOp11
 70
     1
102
RTVSPropertyOp12
 70
     1
102
RTVSPropertyOp13
 70
     1
102
RTVSPropertyOp14
 70
     1
102
RTVSPropertyOp15
 70
     1
102
RTVSPropertyOp16
 70
     1
102
RTVSPropertyOp17
 70
     1
102
RTVSPropertyOp18
 70
     1
102
RTVSPropertyOp19
 70
     1
102
RTVSPropertyOp20
 70
     1
102
RTVSPropertyOp21
 70
     1
102
RTVSPropertyOp22
 70
     1
102
RTVSPropertyOp23
 70
     1
102
RTVSPropertyOp24
 70
     1
102
RTVSPropertyOp25
 70
     1
102
RTVSPropertyOp26
 70
     1
102
RTVSPropertyOp27
 70
     1
102
RTVSPropertyOp28
 70
     1
102
RTVSPropertyOp29
 70
     1
102
RTVSPropertyOp30
 70
     1
102
RTVSPropertyOp31
 70
     1
102
RTVSPropertyOp32
 70
     1
102
RTVSPropertyOp33
 70
     1
102
RTVSPropertyOp34
 70
     1
102
RTVSPropertyOp35
 70
     1
102
RTVSPropertyOp36
 70
     1
102
RTVSPropertyOp37
 70
     1
102
RTVSPropertyOp38
 70
     1
102
RTVSPropertyOp39
 70
     1
102
RTVSPropertyOp40
 70
     1
102
RTVSPropertyOp41
 70
     1
102
RTVSPropertyOp42
 70
     1
102
RTVSPropertyOp43
 70
     1
102
RTVSPropertyOp44
 70
     1
102
RTVSPropertyOp45
 70
     1
102
RTVSPropertyOp46
 70
     1
102
RTVSPropertyOp47
 70
     1
102
RTVSPropertyOp48
 70
     1
102
RTVSPropertyOp49
 70
     1
102
RTVSPropertyOp50
 70
     1
102
RTVSPropertyOp51
 70
     0
102
RTVSPropertyOp52
 70
     0
102
RTVSPropertyOp53
 70
     1
102
RTVSPropertyOp54
 70
     1
102
RTVSPropertyOp55
 70
     1
102
RTVSPropertyOp56
 70
     1
102
RTVSPropertyOp57
 70
     1
102
RTVSPost2010Prop28
280
     0
102
RTVSPost2010PropOp28
 70
     1
102
RTVSPost2010Prop29
280
     1
102
RTVSPost2010PropOp29
 70
     1
102
RTVSPost2010Prop30
280
     1
102
RTVSPost2010PropOp30
 70
     1
102
RTVSPost2010Prop31
280
     0
102
RTVSPost2010PropOp31
 70
     1
102
RTVSPost2010Prop32
280
     0
102
RTVSPost2010PropOp32
 70
     1
102
RTVSPost2010Prop33
280
     0
102
RTVSPost2010PropOp33
 70
     1
102
RTVSPost2010Prop34
280
     0
102
RTVSPost2010PropOp34
 70
     1
102
RTVSPost2010Prop35
280
     0
102
RTVSPost2010PropOp35
 70
     1
102
RTVSPost2010Prop36
280
     0
102
RTVSPost2010PropOp36
 70
     1
102
RTVSPost2010Prop37
 90
       50
102
RTVSPost2010PropOp37
 70
     1
102
RTVSPost2010Prop38
140
0.0
102
RTVSPost2010PropOp38
 70
     1
102
RTVSPost2010Prop39
140
1.0
102
RTVSPost2010PropOp39
 70
     1
102
RTVSPost2010Prop40
 90
        0
102
RTVSPost2010PropOp40
 70
     1
102
RTVSPost2010Prop41ColorIndex
 90
       18
102
RTVSPost2010Prop41ColorRGB
 90
        0
102
RTVSPost2010PropOp41
 70
     1
102
RTVSPost2010Prop42
 90
       50
102
RTVSPost2010PropOp42
 70
     1
102
RTVSPost2010Prop43
 90
        3
102
RTVSPost2010PropOp43
 70
     1
102
RTVSPost2010Prop44ColorIndex
 90
        5
102
RTVSPost2010Prop44ColorRGB
 90
      255
102
RTVSPost2010PropOp44
 70
     1
102
RTVSPost2010Prop45
280
     0
102
RTVSPost2010PropOp45
 70
     1
102
RTVSPost2010Prop46
 90
       50
102
RTVSPost2010PropOp46
 70
     1
102
RTVSPost2010Prop47
 90
       50
102
RTVSPost2010PropOp47
 70
     1
102
RTVSPost2010Prop48
 90
       50
102
RTVSPost2010PropOp48
 70
     1
102
RTVSPost2010Prop49
280
     0
102
RTVSPost2010PropOp49
 70
     1
102
RTVSPost2010Prop50
 90
       50
102
RTVSPost2010PropOp50
 70
     1
102
RTVSPost2010Prop51ColorIndex
 90
      256
102
RTVSPost2010Prop51ColorRGB
 90
-16777216
102
RTVSPost2010PropOp51
 70
     0
102
RTVSPost2010Prop52
140
1.0
102
RTVSPost2010PropOp52
 70
     0
102
RTVSPost2010Prop53
 90
        2
102
RTVSPost2010PropOp53
 70
     1
102
RTVSPost2010Prop54
  1
strokes_ogs.tif
102
RTVSPost2010PropOp54
 70
     1
102
RTVSPost2010Prop55
280
     0
102
RTVSPost2010PropOp55
 70
     1
102
RTVSPost2010Prop56
140
1.0
102
RTVSPost2010PropOp56
 70
     1
102
RTVSPost2010Prop57
140
1.0
102
RTVSPost2010PropOp57
 70
     1
  0
XRECORD
  5
390
102
{ACAD_REACTORS
330
38F
102
}
330
38F
100
AcDbXrecord
280
     1
102
RTVSPropertyOp0
 70
     1
102
RTVSPropertyOp1
 70
     1
102
RTVSPropertyOp2
 70
     1
102
RTVSPropertyOp3
 70
     1
102
RTVSPropertyOp4
 70
     1
102
RTVSPropertyOp5
 70
     1
102
RTVSPropertyOp6
 70
     1
102
RTVSPropertyOp7
 70
     1
102
RTVSPropertyOp8
 70
     1
102
RTVSPropertyOp9
 70
     1
102
RTVSPropertyOp10
 70
     1
102
RTVSPropertyOp11
 70
     1
102
RTVSPropertyOp12
 70
     1
102
RTVSPropertyOp13
 70
     1
102
RTVSPropertyOp14
 70
     1
102
RTVSPropertyOp15
 70
     1
102
RTVSPropertyOp16
 70
     1
102
RTVSPropertyOp17
 70
     1
102
RTVSPropertyOp18
 70
     1
102
RTVSPropertyOp19
 70
     1
102
RTVSPropertyOp20
 70
     1
102
RTVSPropertyOp21
 70
     1
102
RTVSPropertyOp22
 70
     1
102
RTVSPropertyOp23
 70
     1
102
RTVSPropertyOp24
 70
     1
102
RTVSPropertyOp25
 70
     1
102
RTVSPropertyOp26
 70
     1
102
RTVSPropertyOp27
 70
     1
102
RTVSPropertyOp28
 70
     1
102
RTVSPropertyOp29
 70
     1
102
RTVSPropertyOp30
 70
     1
102
RTVSPropertyOp31
 70
     1
102
RTVSPropertyOp32
 70
     1
102
RTVSPropertyOp33
 70
     1
102
RTVSPropertyOp34
 70
     1
102
RTVSPropertyOp35
 70
     1
102
RTVSPropertyOp36
 70
     1
102
RTVSPropertyOp37
 70
     1
102
RTVSPropertyOp38
 70
     1
102
RTVSPropertyOp39
 70
     1
102
RTVSPropertyOp40
 70
     1
102
RTVSPropertyOp41
 70
     1
102
RTVSPropertyOp42
 70
     1
102
RTVSPropertyOp43
 70
     1
102
RTVSPropertyOp44
 70
     1
102
RTVSPropertyOp45
 70
     1
102
RTVSPropertyOp46
 70
     1
102
RTVSPropertyOp47
 70
     1
102
RTVSPropertyOp48
 70
     1
102
RTVSPropertyOp49
 70
     1
102
RTVSPropertyOp50
 70
     1
102
RTVSPropertyOp51
 70
     0
102
RTVSPropertyOp52
 70
     0
102
RTVSPropertyOp53
 70
     1
102
RTVSPropertyOp54
 70
     1
102
RTVSPropertyOp55
 70
     1
102
RTVSPropertyOp56
 70
     1
102
RTVSPropertyOp57
 70
     1
102
RTVSPost2010Prop28
280
     0
102
RTVSPost2010PropOp28
 70
     1
102
RTVSPost2010Prop29
280
     1
102
RTVSPost2010PropOp29
 70
     1
102
RTVSPost2010Prop30
280
     1
102
RTVSPost2010PropOp30
 70
     1
102
RTVSPost2010Prop31
280
     0
102
RTVSPost2010PropOp31
 70
     1
102
RTVSPost2010Prop32
280
     0
102
RTVSPost2010PropOp32
 70
     1
102
RTVSPost2010Prop33
280
     0
102
RTVSPost2010PropOp33
 70
     1
102
RTVSPost2010Prop34
280
     0
102
RTVSPost2010PropOp34
 70
     1
102
RTVSPost2010Prop35
280
     0
102
RTVSPost2010PropOp35
 70
     1
102
RTVSPost2010Prop36
280
     0
102
RTVSPost2010PropOp36
 70
     1
102
RTVSPost2010Prop37
 90
       50
102
RTVSPost2010PropOp37
 70
     1
102
RTVSPost2010Prop38
140
0.0
102
RTVSPost2010PropOp38
 70
     1
102
RTVSPost2010Prop39
140
1.0
102
RTVSPost2010PropOp39
 70
     1
102
RTVSPost2010Prop40
 90
        0
102
RTVSPost2010PropOp40
 70
     1
102
RTVSPost2010Prop41ColorIndex
 90
       18
102
RTVSPost2010Prop41ColorRGB
 90
        0
102
RTVSPost2010PropOp41
 70
     1
102
RTVSPost2010Prop42
 90
       50
102
RTVSPost2010PropOp42
 70
     1
102
RTVSPost2010Prop43
 90
        3
102
RTVSPost2010PropOp43
 70
     1
102
RTVSPost2010Prop44ColorIndex
 90
        5
102
RTVSPost2010Prop44ColorRGB
 90
      255
102
RTVSPost2010PropOp44
 70
     1
102
RTVSPost2010Prop45
280
     0
102
RTVSPost2010PropOp45
 70
     1
102
RTVSPost2010Prop46
 90
       50
102
RTVSPost2010PropOp46
 70
     1
102
RTVSPost2010Prop47
 90
       50
102
RTVSPost2010PropOp47
 70
     1
102
RTVSPost2010Prop48
 90
       50
102
RTVSPost2010PropOp48
 70
     1
102
RTVSPost2010Prop49
280
     0
102
RTVSPost2010PropOp49
 70
     1
102
RTVSPost2010Prop50
 90
       50
102
RTVSPost2010PropOp50
 70
     1
102
RTVSPost2010Prop51ColorIndex
 90
      256
102
RTVSPost2010Prop51ColorRGB
 90
-16777216
102
RTVSPost2010PropOp51
 70
     0
102
RTVSPost2010Prop52
140
1.0
102
RTVSPost2010PropOp52
 70
     0
102
RTVSPost2010Prop53
 90
        2
102
RTVSPost2010PropOp53
 70
     1
102
RTVSPost2010Prop54
  1
strokes_ogs.tif
102
RTVSPost2010PropOp54
 70
     1
102
RTVSPost2010Prop55
280
     0
102
RTVSPost2010PropOp55
 70
     1
102
RTVSPost2010Prop56
140
1.0
102
RTVSPost2010PropOp56
 70
     1
102
RTVSPost2010Prop57
140
1.0
102
RTVSPost2010PropOp57
 70
     1
  0
XRECORD
  5
3B0
102
{ACAD_REACTORS
330
3AF
102
}
330
3AF
100
AcDbXrecord
280
     1
102
RTVSPropertyOp0
 70
     1
102
RTVSPropertyOp1
 70
     1
102
RTVSPropertyOp2
 70
     1
102
RTVSPropertyOp3
 70
     1
102
RTVSPropertyOp4
 70
     1
102
RTVSPropertyOp5
 70
     1
102
RTVSPropertyOp6
 70
     1
102
RTVSPropertyOp7
 70
     1
102
RTVSPropertyOp8
 70
     1
102
RTVSPropertyOp9
 70
     1
102
RTVSPropertyOp10
 70
     1
102
RTVSPropertyOp11
 70
     1
102
RTVSPropertyOp12
 70
     1
102
RTVSPropertyOp13
 70
     1
102
RTVSPropertyOp14
 70
     1
102
RTVSPropertyOp15
 70
     1
102
RTVSPropertyOp16
 70
     1
102
RTVSPropertyOp17
 70
     1
102
RTVSPropertyOp18
 70
     1
102
RTVSPropertyOp19
 70
     1
102
RTVSPropertyOp20
 70
     1
102
RTVSPropertyOp21
 70
     1
102
RTVSPropertyOp22
 70
     1
102
RTVSPropertyOp23
 70
     1
102
RTVSPropertyOp24
 70
     1
102
RTVSPropertyOp25
 70
     1
102
RTVSPropertyOp26
 70
     1
102
RTVSPropertyOp27
 70
     1
102
RTVSPropertyOp28
 70
     1
102
RTVSPropertyOp29
 70
     1
102
RTVSPropertyOp30
 70
     1
102
RTVSPropertyOp31
 70
     1
102
RTVSPropertyOp32
 70
     1
102
RTVSPropertyOp33
 70
     1
102
RTVSPropertyOp34
 70
     1
102
RTVSPropertyOp35
 70
     1
102
RTVSPropertyOp36
 70
     1
102
RTVSPropertyOp37
 70
     1
102
RTVSPropertyOp38
 70
     1
102
RTVSPropertyOp39
 70
     1
102
RTVSPropertyOp40
 70
     1
102
RTVSPropertyOp41
 70
     1
102
RTVSPropertyOp42
 70
     1
102
RTVSPropertyOp43
 70
     1
102
RTVSPropertyOp44
 70
     1
102
RTVSPropertyOp45
 70
     1
102
RTVSPropertyOp46
 70
     1
102
RTVSPropertyOp47
 70
     1
102
RTVSPropertyOp48
 70
     1
102
RTVSPropertyOp49
 70
     1
102
RTVSPropertyOp50
 70
     1
102
RTVSPropertyOp51
 70
     0
102
RTVSPropertyOp52
 70
     0
102
RTVSPropertyOp53
 70
     1
102
RTVSPropertyOp54
 70
     1
102
RTVSPropertyOp55
 70
     1
102
RTVSPropertyOp56
 70
     1
102
RTVSPropertyOp57
 70
     1
102
RTVSPost2010Prop28
280
     0
102
RTVSPost2010PropOp28
 70
     1
102
RTVSPost2010Prop29
280
     1
102
RTVSPost2010PropOp29
 70
     1
102
RTVSPost2010Prop30
280
     1
102
RTVSPost2010PropOp30
 70
     1
102
RTVSPost2010Prop31
280
     0
102
RTVSPost2010PropOp31
 70
     1
102
RTVSPost2010Prop32
280
     0
102
RTVSPost2010PropOp32
 70
     1
102
RTVSPost2010Prop33
280
     0
102
RTVSPost2010PropOp33
 70
     1
102
RTVSPost2010Prop34
280
     0
102
RTVSPost2010PropOp34
 70
     1
102
RTVSPost2010Prop35
280
     0
102
RTVSPost2010PropOp35
 70
     1
102
RTVSPost2010Prop36
280
     0
102
RTVSPost2010PropOp36
 70
     1
102
RTVSPost2010Prop37
 90
       50
102
RTVSPost2010PropOp37
 70
     1
102
RTVSPost2010Prop38
140
0.0
102
RTVSPost2010PropOp38
 70
     1
102
RTVSPost2010Prop39
140
1.0
102
RTVSPost2010PropOp39
 70
     1
102
RTVSPost2010Prop40
 90
        0
102
RTVSPost2010PropOp40
 70
     1
102
RTVSPost2010Prop41ColorIndex
 90
       18
102
RTVSPost2010Prop41ColorRGB
 90
        0
102
RTVSPost2010PropOp41
 70
     1
102
RTVSPost2010Prop42
 90
       50
102
RTVSPost2010PropOp42
 70
     1
102
RTVSPost2010Prop43
 90
        3
102
RTVSPost2010PropOp43
 70
     1
102
RTVSPost2010Prop44ColorIndex
 90
        5
102
RTVSPost2010Prop44ColorRGB
 90
      255
102
RTVSPost2010PropOp44
 70
     1
102
RTVSPost2010Prop45
280
     0
102
RTVSPost2010PropOp45
 70
     1
102
RTVSPost2010Prop46
 90
       50
102
RTVSPost2010PropOp46
 70
     1
102
RTVSPost2010Prop47
 90
       50
102
RTVSPost2010PropOp47
 70
     1
102
RTVSPost2010Prop48
 90
       50
102
RTVSPost2010PropOp48
 70
     1
102
RTVSPost2010Prop49
280
     0
102
RTVSPost2010PropOp49
 70
     1
102
RTVSPost2010Prop50
 90
       50
102
RTVSPost2010PropOp50
 70
     1
102
RTVSPost2010Prop51ColorIndex
 90
      256
102
RTVSPost2010Prop51ColorRGB
 90
-16777216
102
RTVSPost2010PropOp51
 70
     0
102
RTVSPost2010Prop52
140
1.0
102
RTVSPost2010PropOp52
 70
     0
102
RTVSPost2010Prop53
 90
        2
102
RTVSPost2010PropOp53
 70
     1
102
RTVSPost2010Prop54
  1
strokes_ogs.tif
102
RTVSPost2010PropOp54
 70
     1
102
RTVSPost2010Prop55
280
     0
102
RTVSPost2010PropOp55
 70
     1
102
RTVSPost2010Prop56
140
1.0
102
RTVSPost2010PropOp56
 70
     1
102
RTVSPost2010Prop57
140
1.0
102
RTVSPost2010PropOp57
 70
     1
  0
ENDSEC
  0
EOF
